My Friends Over You - New Found Glory
00:00 / 00:00
Tabs and lyrics
Tunning: Standard (E A D G B e)
New Found Glory
My Friends Over You

By God Of F**k

This is my first tab so be gentle I got some help from the forum and watched them live
and the video.

[Intro]
Guitar 1
e|----------------------------------|
b|----------------------------------|
g|--7-7---7-7--7--------------------|
d|--7-7---7-7--7----5-5---5-5--5----|
a|--5-5---5-5--5----5-5---5-5--5----|
E|------------------3-3---3-3--3----|
pm-- pm--


Guitar 2 (Lead Riff)
e|-0-----0--2--0---------0---------0--2--0---------------|
B|----3-----------3--3-----3--3-------------3--3--3------|
G|-------------------------------------------------------|
D|-------------------------------------------------------|
A|-------------------------------------------------------|
E|-------------------------------------------------------|


[Verse]
e|----------------------------------|
b|----------------------------------|
g|--7-7---7-7--7--------------------|
d|--7-7---7-7--7----5-5---5-5--5----|
a|--5-5---5-5--5----5-5---5-5--5----|
E|------------------3-3---3-3--3----|
pm-- pm--


e|----------------------------|
b|----------------------------|
g|----------------------------|
d|--2--2--2--2---5--5--5--5---|
a|--2--2--2--2---5--5--5--5---|
E|--0--0--0--0---3--3--3--3---|

To Lead You On
e|-----------------|
b|-----------------|
g|--77777----------|
d|--77777----------|
a|--55555----------|
E|-----------------|


[Chorus]
Guitar 1 x2
e|-----------------------------|
b|-----------------------------|
g|--777777777777---------------|
d|--777777777777--555555555555-|
a|--555555555555--555555555555-|
E|----------------333333333333-|


e|----------------------------------------------------------|
b|----------------------------------------------------------|
g|----------------------------------------------------------|
d|---------999999999999--555555555555--999999999------------|
a|---------999999999999--555555555555--999999999------------|
E|-Slide---777777777777--333333333333--777777777-7-3-5-3-0--|


[Interlude]
e|------------------------------|
b|------------------------------|
g|------------------------------|
d|------------------------------|
a|--5------5--------------------|
E|----3-5----5-3-7-3-5-7-5-3----|


(Clean)
You Need This
e|-------------------------------------|
b|-------------------------------------|
g|--7-7-xx-7-----------------7-7-xx-7--|
d|--7-7-xx-7-----5-5-xx-5----7-7-xx-7--|
a|--5-5-xx-5-----5-5-xx-5----5-5-xx-5--|
E|---------------3-3-xx-3--------------|

To Lead You On
e|-----------------|
b|-----------------|
g|--77777----------|
d|--77777----------|
a|--55555----------|
E|-----------------|



************************************

| x Dead note

************************************
Tunning: Standard (E A D G B e)
sorry about the 1st one, there were sum mistakes but now i think its right.

legend:
*= palm mute
p= pull of
L.R.=let the note ring
X=dead note



rythm:intro
e---------------------------------------------------------
b---------------------------------------------------------
g---------------------------------------------------------
d---7-7-7-7-7-----------------7-7-7-7-7--------------(5)L.
a---5-5-5-5-5----5-5-5-5-5----5-5-5-5-5----5-5-5-5---(5)R.
e----------------3-3-3-3-3-----------------3-3-3-3---(3)--
* * * * * * * *
lead:intro

e-----------------------------------||--------------------
b-----------------------------------||--------------------
g---9p7-7-11-9p7-7-9p7-7-11-9p7-7-7-||--x3----------------
d-----------------------------------||--------------------
a-----------------------------------||--------------------
e-----------------------------------||--------------------

e-----------------||--------------------------------------
b-----------------||--------------------------------------
g---9p7-7----(7)--||-x1-----------------------------------
d------------(7)L.||--------------------------------------
a------------(5)R.||--------------------------------------
e-----------------||--------------------------------------

rythm:verse

e---------------------------------------------------------
b---------------------------------------------------------
g----------------------------7-7-7-7-7--------------------
d---7-7-7-7-7----------------5-5-5-5-5--------------------
a---5-5-5-5-5----5-5-5-5-5--------------2-2-2222-5-5-5555-
e----------------3-3-3-3-3--------------0-0-0000-3-3-3333-
* * * * * *
e---------------------------------------------------------
b---------------------------------------------------------
g----------------------------7-7-7-7-7--------------------
d---7-7-7-7-7----------------5-5-5-5-5--------------------
a---5-5-5-5-5----5-5-5-5-5--------------2-2-2222-5-5-5555-
e----------------3-3-3-3-3--------------0-0-0000-3-3-3333-
* * * * * *

e-----------------------------------------------||--------
b-----------------------------------------------||--------
g-----------------------------------------------||--------
d----------------------------------------7X77X77||--------
a---2-2-2222-5-5-5555-2-2-2222-5-5-5555--7X77X77||--------
e---0-0-0000-3-3-3333-0-0-0000-3-3-3333--5X55X55||--------

chorus

e------------------||-------------------------------||----
b------------------||-------------------------------||----
g--(7)-------------||------(4)---------------(4)----||----
d--(7)-x16--(5)----||-x2---(4)-x16--(5)------(4)-x16||-x1-
a--(5)------(5)-x16||------(2)------(5)-x16--(2)----||----
e-----------(3)----||---------------(3)-------------||----

end chorus riff

e---------------------||----------------------------------
b---------------------||----------------------------------
g---------------------||----------------------------------
d----------------(2)--||----------------------------------
a------------55--(2)L.||----------------------------------
e---55-33-22-----(0)R.||----------------------------------

intro
verse
chorus
interlude

e---------------------------||----------------------------
b---------------------------||----------------------------
g---------------------------||----------------------------
d---------------------------||-x4-------------------------
a---5----5----2----2--------||----------------------------
e-----23---23---23---53-----||----------------------------

chorus x2
any questions or corrections email me at ekudal@msn.com
Tunning: Standard (E A D G B e)
New Found Glory - My Friends Over You - Tabbed by Adam Bourne
Lead and Rhythm Guitar Version
Standard EADGBe tuning


Lead
e ---------------------------------------------------------------
B -------7---------------7----------------7---------------7------
G -9-7-9---9-7-7-9-7-7-9---9-7-7----9-7-9---9-7-7-9-7-7-9---9-7-7
D ---------------------------------------------------------------
A ---------------------------------------------------------------
E ---------------------------------------------------------------

Rhythm
e ---------------------------------------------------------------
B ---------------------------------------------------------------
G ----7----7----x----x----7--------------------------------------
D ----7----7----x----x----7-------------5----5----x----x----5----
A ----5----5----x----x----5-------------5----5----x----x----5----
E --------------------------------------3----3----x----x----3----

Play both of these twice

Both then play the Rhythm part throughout the verse until the interlude

Rhythm Lead
e ----------------------- e ------------------------
B ----------------------- B ------------------------
G ----------------------- G -9-9-9-9----------------
D -2-2-2-2-5-5-5-5------- D -9-9-9-9-5-5-5-5--------
A -2-2-2-2-5-5-5-5------- A -7-7-7-7-5-5-5-5--------
E -0-0-0-0-3-3-3-3------- E ---------3-3-3-3--------

Then play again..
e ---------------------------------------------------------------
B ---------------------------------------------------------------
G ----7----7----x----x----7--------------------------------------
D ----7----7----x----x----7-------------5----5----x----x----5----
A ----5----5----x----x----5-------------5----5----x----x----5----
E --------------------------------------3----3----x----x----3----

Then the second time round, the Rhythm continues with the above
while the lead plays the riff over the top (listen to the song and you'll get it)

e -----------------------------------
B -------7---------------7-----------
G -9-7-9---9-7-7-9-7-7-9---9-7-7-----
D -----------------------------------
A -----------------------------------
E -----------------------------------

Then again it is

Rhythm Lead
e ----------------------- e ------------------------
B ----------------------- B ------------------------
G ----------------------- G -9-9-9-9----------------
D -2-2-2-2-5-5-5-5------- D -9-9-9-9-5-5-5-5--------
A -2-2-2-2-5-5-5-5------- A -7-7-7-7-5-5-5-5--------
E -0-0-0-0-3-3-3-3------- E ---------3-3-3-3-------- x 3

then both play as Jordan sings "Lead you on..."

e ---------------------
B ---------------------
G ---------------------
D ---7-7-7-7-7-7-7-7---
A ---7-7-7-7-7-7-7-7---
E ---5-5-5-5-5-5-5-5---

Then the chorus goes

Lead
e ----------------------------------------------------------------
B ----------------------------------------------------------------
G -7-7-7-7-7-7-7-7-7-------------7-7-7-7-7-7-7-7-7----------------
D -7-7-7-7-7-7-7-7-7-5-5-5-5-5-5-7-7-7-7-7-7-7-7-7-5-5-5-5-5-5----
A -5-5-5-5-5-5-5-5-5-5-5-5-5-5-5-5-5-5-5-5-5-5-5-5-5-5-5-5-5-5----
E -------------------3-3-3-5-3-3-------------------3-3-3-3-3-3----

Rhythm
e ----------------------------------------------------------------
B ----------------------------------------------------------------
G -7-7-7-7-7-7-7-7-7-------------7-7-7-7-7-7-7-7-7----------------
D -7-7-7-7-7-7-7-7-7-5-5-5-5-5-5-7-7-7-7-7-7-7-7-7-5-5-5-5-5-5----
A -5-5-5-5-5-5-5-5-5-5-5-5-5-5-5-5-5-5-5-5-5-5-5-5-5-5-5-5-5-5----
E -------------------3-3-3-5-3-3-------------------3-3-3-3-3-3----
(then scrape the plectrum along dead strings to create the screech)

Lead
e ----------------------------------------------------------
B ----------------------------------------------------------
G -4-4-4-4-6-6-7---------6-6-7-4-4-4-4-6-6-7----------------
D -4-4-4-4-6-6-7-5-5-5-5-6-6-7-4-4-4-4-6-6-7-5-5-5-5-7------
A -2-2-2-2-4-4-5-5-5-5-5-4-4-5-2-2-2-2-4-4-5-5-5-5-5-7------ Let the last note ring
E ---------------3-3-3-3---------------------3-3-3-3-5------

Rhythm
e ----------------------------------------------------------
B ----------------------------------------------------------
G -4-4-4-4-4-4-4---------------4-4-4-4-4-4-4----------------
D -4-4-4-4-4-4-4-5-5-5-5-5-5-5-4-4-4-4-4-4-4-5-5-5-5-7------
A -2-2-2-2-2-2-2-5-5-5-5-5-5-5-2-2-2-2-2-2-2-5-5-5-5-7------
E ---------------3-3-3-3-3-3-3---------------3-3-3-3-5------

Then repeat that sequence again until the end of the second chorus.

Then when it comes to the bridge play the Lead plays

e -----------------------------
B -----------------------------
G -----------------------------
D -0-----0---------------------
A -------------2-----2---------
E ---2-3---2-3---2-3---5-3----- Play x 4

On the second time the Rhythm comes in with

e -----------------------------
B -----------------------------
G -7-----7-----4-----4---------
D -7-4-5-7-4-5-4-4-5-4-7-5-----
A -5-4-5-5-4-5-2-4-5-2-7-5-----
E ---2-3---2-3---2-3---5-3----- Play x 3

Then strum dead strings and generally pick them to create the noise while Jordan sings,
then play

Lead
e ----------------------------------------------------------------
B ----------------------------------------------------------------
G -7-7-7-7-7-7-7-7-7-------------7-7-7-7-7-7-7-7-7----------------
D -7-7-7-7-7-7-7-7-7-5-5-5-5-5-5-7-7-7-7-7-7-7-7-7-5-5-5-5-5-5----
A -5-5-5-5-5-5-5-5-5-5-5-5-5-5-5-5-5-5-5-5-5-5-5-5-5-5-5-5-5-5----
E -------------------3-3-3-5-3-3-------------------3-3-3-3-3-3----

Rhythm
e ----------------------------------------------------------------
B ----------------------------------------------------------------
G -7-7-7-7-7-7-7-7-7-------------7-7-7-7-7-7-7-7-7----------------
D -7-7-7-7-7-7-7-7-7-5-5-5-5-5-5-7-7-7-7-7-7-7-7-7-5-5-5-5-5-5----
A -5-5-5-5-5-5-5-5-5-5-5-5-5-5-5-5-5-5-5-5-5-5-5-5-5-5-5-5-5-5----
E -------------------3-3-3-5-3-3-------------------3-3-3-3-3-3----
(then scrape the plectrum along dead strings to create the screech)

Lead
e ----------------------------------------------------------
B ----------------------------------------------------------
G -4-4-4-4-6-6-7---------6-6-7-4-4-4-4-6-6-7----------------
D -4-4-4-4-6-6-7-5-5-5-5-6-6-7-4-4-4-4-6-6-7-5-5-5-5-7------
A -2-2-2-2-4-4-5-5-5-5-5-4-4-5-2-2-2-2-4-4-5-5-5-5-5-7------ Let the last note ring
E ---------------3-3-3-3---------------------3-3-3-3-5------

Rhythm
e ----------------------------------------------------------
B ----------------------------------------------------------
G -4-4-4-4-4-4-4---------------4-4-4-4-4-4-4----------------
D -4-4-4-4-4-4-4-5-5-5-5-5-5-5-4-4-4-4-4-4-4-5-5-5-5-7------
A -2-2-2-2-2-2-2-5-5-5-5-5-5-5-2-2-2-2-2-2-2-5-5-5-5-7------ Let the last note ring
E ---------------3-3-3-3-3-3-3---------------3-3-3-3-5------

Then the lead goes back to

Lead
e ---------------------------------------------------------------
B -------7---------------7----------------7---------------7------
G -9-7-9---9-7-7-9-7-7-9---9-7-7----9-7-9---9-7-7-9-7-7-9---9-7-7
D ---------------------------------------------------------------
A ---------------------------------------------------------------
E ---------------------------------------------------------------

Whilst the Rhythm plays

Rhythm
e ----------------------------------------------------------------
B ----------------------------------------------------------------
G -7-7-7-7-7-7-7-7-7-------------7-7-7-7-7-7-7-7-7----------------
D -7-7-7-7-7-7-7-7-7-5-5-5-5-5-5-7-7-7-7-7-7-7-7-7-5-5-5-5-5-5----
A -5-5-5-5-5-5-5-5-5-5-5-5-5-5-5-5-5-5-5-5-5-5-5-5-5-5-5-5-5-5----
E -------------------3-3-3-5-3-3-------------------3-3-3-3-3-3----
(then scrape the plectrum along dead strings to create the screech)


Both then play

Lead
e ----------------------------------------------------------
B ----------------------------------------------------------
G -4-4-4-4-6-6-7---------6-6-7-4-4-4-4-6-6-7----------------
D -4-4-4-4-6-6-7-5-5-5-5-6-6-7-4-4-4-4-6-6-7-5-5-5-5-7------
A -2-2-2-2-4-4-5-5-5-5-5-4-4-5-2-2-2-2-4-4-5-5-5-5-5-7------ Let the last note ring
E ---------------3-3-3-3---------------------3-3-3-3-5------

Rhythm
e ----------------------------------------------------------
B ----------------------------------------------------------
G -4-4-4-4-4-4-4---------------4-4-4-4-4-4-4----------------
D -4-4-4-4-4-4-4-5-5-5-5-5-5-5-4-4-4-4-4-4-4-5-5-5-5-7------
A -2-2-2-2-2-2-2-5-5-5-5-5-5-5-2-2-2-2-2-2-2-5-5-5-5-7------ Let the last note ring
E ---------------3-3-3-3-3-3-3---------------3-3-3-3-5------

Then to end the song

Lead
e ---------------------------------------------------------------
B -------7---------------7----------------7---------------7------
G -9-7-9---9-7-7-9-7-7-9---9-7-7----9-7-9---9-7-7-9-7-7-9---9-7-7
D ---------------------------------------------------------------
A ---------------------------------------------------------------
E ---------------------------------------------------------------

Rhythm
e ---------------------------------------------------------------
B ---------------------------------------------------------------
G ----7----7----x----x----7--------------------------------------
D ----7----7----x----x----7-------------5----5----x----x----5----
A ----5----5----x----x----5-------------5----5----x----x----5----
E --------------------------------------3----3----x----x----3----

I think this is exactly right. I play in a band called No Reply and we play it and it
sounds perfect.
Tunning: Standard (E A D G B e)
#----------------------------------PLEASE NOTE---------------------------------#
#This file is the author's own work and represents their interpretation of the #
#song. You may only use this file for private study, scholarship, or research. #
#------------------------------------------------------------------------------##

MY FRIENDS OVER YOU
As recorded by New Found Glory
(From the 2002 Album STICKS AND STONES)

Words by Jordan Pundik

Music by Jordan Pundik, Steve Klien, Chad Gilbert, Ian Grushka, Cyrus Bolooki
Arranged by Jordan Pundik, Steve Klien, Chad Gilbert, Ian Grushka, Cyrus Bolooki
Transcribed by Brodie Tavares

Gtr I (E A D G B E) - 'Untitled'
Gtr II (E A D G B E) - 'Untitled'
Gtr III (E A D G B E) - 'Untitled'

Intro/Pre-Verse
Q=95
D5 G5
4/4
Gtr II
||----------------------------------|---------------------------------|
||o-------7---------------7---------|-------7---------------7---------|
||--9-7-9---9-7-7-9-7-7-9---9-7-7-7-|-9-7-9---9-7-7-9-7-7-9---9-7-7-7-|
||----------------------------------|---------------------------------|
||o---------------------------------|---------------------------------|
||----------------------------------|---------------------------------|
|
| Gtr III
| PM--| PM--|
||----------------------------------|---------------------------------|
||o---------------------------------|---------------------------------|
||--7-7-7---------------7-----------|---------------------------------|
||--7-7-7---------7---7-7-----------|-5-5-5---------------5-----------|
||o-5-5-5---------5---5-5-----------|-5-5-5---------5---5-5-----------|
||----------------------------------|-3-3-3---------3---3-3-----------|


D5 G5
|---------------------------------|--------------------------|
|-------7---------------7---------|-------7-------------8----|
|-9-7-9---9-7-7-9-7-7-9---9-7-7-7-|-9-7-9---9-7-7-9-7-7-7----|
|---------------------------------|--------------------------|
|---------------------------------|--------------------------|
|---------------------------------|--------------------------|
|
| PM--| PM--|
|---------------------------------|--------------------------|
|---------------------------------|--------------------------|
|-7-7-7---------------7-----------|---------------------7----|
|-7-7-7---------7---7-7-----------|-5-5-5---------------5----|
|-5-5-5---------5---5-5-----------|-5-5-5---------5---5-5----|
|---------------------------------|-3-3-3---------3---3-3----|


Verses 1 & 2
D5 G5 D5 E5 F#G5 F#5
PM| PM| PM|
|---------------|---------------|---------------|----------------------------|
|---------------|---------------|---------------|----------------------------|
|---7-7------7--|---------------|---7-7------7--|----------------------------|
|-7-7-7--7-7-7--|-5-5-5------5--|-7-7-7--7-7-7--|-2--2--2--2-4-5--5--5--5-4--|
|-5-5-5--5-5-5--|-5-5-5--5-5-5--|-5-5-5--5-5-5--|-2--2--2--2-4-5--5--5--5-4--|
|---------------|-3-3-3--3-3-3--|---------------|-0--0--0--0-2-3--3--3--3-2--|


D5 G5
Gtr II
|---------------------|---------------|
|---------------------|---------------|
|---------------------|---------------|
|-----------------4S5-|---------------|
|---------------------|---------------|
|-----------------2S3-|---------------|
|
| Gtr III
| PM-| PM|
|---------------------|---------------|
|---------------------|---------------|
|---7-7-------7-------|---------------|
|-7-7-7--7--7-7-------|-5-5-5------5--|
|-5-5-5--5--5-5-------|-5-5-5--5-5-5--|
|---------------------|-3-3-3--3-3-3--|


D5 E5 F#G5 F#5
|---------------------------------|------------------------------|
|-------7---------------7---------|------------------------------|
|-9-7-9---9-7-7-9-7-7-9---9-7-7-7-|------------------------------|
|---------------------------------|-2--2--2--2-4-5--5--5--5-4----|
|---------------------------------|-2--2--2--2-4-5--5--5--5-4----|
|---------------------------------|-0--0--0--0-2-3--3--3--3-2----|
|
| PM--|
|---------------------------------|------------------------------|
|---------------------------------|------------------------------|
|---7-7---------------7-----------|------------------------------|
|-7-7-7---------7---7-7-----------|-2--2--2--2-4-5--5--5--5-4----|
|-5-5-5---------5---5-5-----------|-2--2--2--2-4-5--5--5--5-4----|
|---------------------------------|-0--0--0--0-2-3--3--3--3-2----|


Pre - Chorus
E5 F#G5 F#5 E5 F#G5 G5
|---------------------------|---------------------------|
|---------------------------|---------------------------|
|---------------------------|---------------------------|
|-2--2--2--2-4-5--5--5--5-4-|-2--2--2--2-4-5--5--5--5-4-|
|-2--2--2--2-4-5--5--5--5-4-|-2--2--2--2-4-5--5--5--5-4-|
|-0--0--0--0-2-3--3--3--3-2-|-0--0--0--0-2-3--3--3--3-2-|
|
|---------------------------|---------------------------|
|---------------------------|---------------------------|
|---------------------------|---------------------------|
|-2--2--2--2-4-5--5--5--5-4-|-2--2--2--2-4-5--5--5--5-4-|
|-2--2--2--2-4-5--5--5--5-4-|-2--2--2--2-4-5--5--5--5-4-|
|-0--0--0--0-2-3--3--3--3-2-|-0--0--0--0-2-3--3--3--3-2-|


A5
|------------------------------|
|------------------------------|
|------------------------------|
|-7-7-7-7-7-7-7----------------|
|-7-7-7-7-7-7-7----------------|
|-5-5-5-5-5-5-5----------------|
|
|------------------------------|
|------------------------------|
|------------------------------|
|-7-7-7-7-7-7-7--x-x-x-x-x-x---|
|-7-7-7-7-7-7-7--x-x-x-x-x-x---|
|-5-5-5-5-5-5-5--x-x-x-x-x-x---|


Chorus 1 & 2
D5 G5
|---------------------------------|---------------------------------|
|---------------------------------|---------------------------------|
|-7-7-7-7-7-7-7-7-7-7-7-7-7-7-7-7-|-7-7-7-7-7-7-7-7-7-7-7-7-7S6-6-6-|
|-7-7-7-7-7-7-7-7-7-7-7-7-7-7-7-7-|---------------------------------|
|-5-5-5-5-5-5-5-5-5-5-5-5-5-5-5-5-|-5-5-5-5-5-5-5-5-5-5-5-5-5S4-4-4-|
|---------------------------------|---------------------------------|
|
|---------------------------------|---------------------------------|
|---------------------------------|---------------------------------|
|-7-7-7-7-7-7-7-7-7-7-7-7-7-7-7-7-|---------------------------------|
|-7-7-7-7-7-7-7-7-7-7-7-7-7-7-7-7-|-5-5-5-5-5-5-5-5-5-5-5-5-5-5-5-5-|
|-5-5-5-5-5-5-5-5-5-5-5-5-5-5-5-5-|-5-5-5-5-5-5-5-5-5-5-5-5-5-5-5-5-|
|---------------------------------|-3-3-3-3-3-3-3-3-3-3-3-3-3-3-3-3-|


D5 G5
|---------------------------------|-------------------------------------|
|---------------------------------|-------------------------------------|
|-7-7-7-7-7-7-7-7-7-7-7-7-7-7-7-7-|-------------------------------------|
|-7-7-7-7-7-7-7-7-7-7-7-7-7-7-7-7-|-5-5-5-5-5-5-5-5---x\----------------|
|-5-5-5-5-5-5-5-5-5-5-5-5-5-5-5-5-|-5-5-5-5-5-5-5-5---x\----------------|
|---------------------------------|-3-3-3-3-3-3-3-3---x\----------------|
|
|---------------------------------|-------------------------------------|
|---------------------------------|-------------------------------------|
|-7-7-7-7-7-7-7-7-7-7-7-7-7-7-7-7-|-------------------------------------|
|-7-7-7-7-7-7-7-7-7-7-7-7-7-7-7-7-|-5-5-5-5-5-5-5-5-5-5--5-5-5-5-5-5----|
|-5-5-5-5-5-5-5-5-5-5-5-5-5-5-5-5-|-5-5-5-5-5-5-5-5-5-5--5-5-5-5-5-5----|
|---------------------------------|-3-3-3-3-3-3-3-3-3-3--3-3-3-3-3-3----|


B5 G5
|---------------------------------|---------------------------------|
|---------------------------------|---------------------------------|
|-4-4-4-4-4-4-4-4S6-6-6-6S7-7-7-7-|-----------------6-6-6-6S7-7-7-7-|
|-4-4-4-4-4-4-4-4-----------------|-5-5-5-5-5-5-5-5-----------------|
|-2-2-2-2-2-2-2-2S4-4-4-4S5-5-5-5-|-5-5-5-5-5-5-5-5S4-4-4-4S5-5-5-5-|
|---------------------------------|-3-3-3-3-3-3-3-3-----------------|
|
|---------------------------------|---------------------------------|
|---------------------------------|---------------------------------|
|-4-4-4-4-4-4-4-4-4-4-4-4-4-4-4-4-|---------------------------------|
|-4-4-4-4-4-4-4-4-4-4-4-4-4-4-4-4-|-5-5-5-5-5-5-5-5-5-5-5-5-5-5-5-5-|
|-2-2-2-2-2-2-2-2-2-2-2-2-2-2-2-2-|-5-5-5-5-5-5-5-5-5-5-5-5-5-5-5-5-|
|---------------------------------|-3-3-3-3-3-3-3-3-3-3-3-3-3-3-3-3-|


B5 G F#E D A5
|---------------------------------|---------------||
|---------------------------------|--------------o||
|-4-4-4-4-4-4-4-4S6-6-6-6S7-7-7-7-|---------------||
|-4-4-4-4-4-4-4-4-----------------|---------------||
|-2-2-2-2-2-2-2-2S4-4-4-4S5-5-5-5-|---------7----o||
|---------------------------------|---------5-----||
|
|---------------------------------|---------------||
|---------------------------------|--------------o||
|-4-4-4-4-4-4-4-4-4-4-4-4-4-4-4-4-|---------------||
|-4-4-4-4-4-4-4-4-4-4-4-4-4-4-4-4-|-------0-------||
|-2-2-2-2-2-2-2-2-2-2-2-2-2-2-2-2-|--------------o||
|---------------------------------|-3-2-0---5-----||


Bridge
D B D5 B5
3x
|---------------|---------------||--------------|-----------------||
|---------------|---------------||o-------------|----------------o||
|---------------|---------------||--------------|-----------------||
|---------------|---------------||--7-----7-----|-4-----4---------||
|-5-----5-------|-2-----2-------||o-5-4-5-5-4-5-|-2-4-5-2-7-5----o||
|---2-3---2-3---|---2-3---5-3---||----2-3---2-3-|---2-3---5-3-----||
|
| 3x
|---------------|---------------||--------------|-----------------||
|---------------|---------------||o-------------|----------------o||
|---------------|---------------||--------------|-----------------||
|---------------|---------------||--7-----7-----|-4-----4---------||
|---------------|---------------||o-5-4-5-5-4-5-|-2-4-5-2-7-5----o||
|---------------|---------------||----2-3---2-3-|---2-3---5-3-----||


Pre-Chorus
E5 F#G5 E5 F#G5
Gtr I
|-----------------|-----------------|
|-----------------|-----------------|
|-----------------|-----------------|
|-2--x-x-4-5--5\--|-2--x-x-4-5--5\--|
|-2--x-x-4-5--5\--|-2--x-x-4-5--5\--|
|-0--x-x-2-3--3\--|-0--x-x-2-3--3\--|
|
|-----------------|-----------------|
|-----------------|-----------------|
|-----------------|-----------------|
|-----------------|-----------------|
|-----------------|-----------------|
|-----------------|-----------------|


E5 F#G5 A5
Gtr II
|-----------------|----------------------------|
|-----------------|----------------------------|
|-----------------|----------------------------|
|-2--x-x-4-5--5\--|-7-7-7-7-7-7-7--x-x-x-x-x-x-|
|-2--x-x-4-5--5\--|-7-7-7-7-7-7-7--x-x-x-x-x-x-|
|-0--x-x-2-3--3\--|-5-5-5-5-5-5-5--x-x-x-x-x-x-|
|
|-----------------|----------------------------|
|-----------------|----------------------------|
|-----------------|----------------------------|
|-----------------|-7-7-7-7-7-7-7--------------|
|-----------------|-7-7-7-7-7-7-7--------------|
|-----------------|-5-5-5-5-5-5-5--------------|


Chorus 3
D5 G5
|---------------------------------|---------------------------------|
|---------------------------------|---------------------------------|
|-7-7-7-7-7-7-7-7-7-7-7-7-7-7-7-7-|-7-7-7-7-7-7-7-7-7-7-7-7-7S6-6-6-|
|-7-7-7-7-7-7-7-7-7-7-7-7-7-7-7-7-|---------------------------------|
|-5-5-5-5-5-5-5-5-5-5-5-5-5-5-5-5-|-5-5-5-5-5-5-5-5-5-5-5-5-5S4-4-4-|
|---------------------------------|---------------------------------|
|
|---------------------------------|---------------------------------|
|---------------------------------|---------------------------------|
|-7-7-7-7-7-7-7-7-7-7-7-7-7-7-7-7-|---------------------------------|
|-7-7-7-7-7-7-7-7-7-7-7-7-7-7-7-7-|-5-5-5-5-5-5-5-5-5-5-5-5-5-5-5-5-|
|-5-5-5-5-5-5-5-5-5-5-5-5-5-5-5-5-|-5-5-5-5-5-5-5-5-5-5-5-5-5-5-5-5-|
|---------------------------------|-3-3-3-3-3-3-3-3-3-3-3-3-3-3-3-3-|


D5 G5
|---------------------------------|-------------------------------------|
|---------------------------------|-------------------------------------|
|-7-7-7-7-7-7-7-7-7-7-7-7-7-7-7-7-|-------------------------------------|
|-7-7-7-7-7-7-7-7-7-7-7-7-7-7-7-7-|-5-5-5-5-5-5-5-5-x\------------------|
|-5-5-5-5-5-5-5-5-5-5-5-5-5-5-5-5-|-5-5-5-5-5-5-5-5-x\------------------|
|---------------------------------|-3-3-3-3-3-3-3-3-x\------------------|
|
|---------------------------------|-------------------------------------|
|---------------------------------|-------------------------------------|
|-7-7-7-7-7-7-7-7-7-7-7-7-7-7-7-7-|-------------------------------------|
|-7-7-7-7-7-7-7-7-7-7-7-7-7-7-7-7-|-5-5-5-5-5-5-5-5-5--5-5-5-5-5-5-5----|
|-5-5-5-5-5-5-5-5-5-5-5-5-5-5-5-5-|-5-5-5-5-5-5-5-5-5--5-5-5-5-5-5-5----|
|---------------------------------|-3-3-3-3-3-3-3-3-3--3-3-3-3-3-3-3----|


B5 G5
||----------------------------------|---------------------------------|
||o---------------------------------|---------------------------------|
||--4-4-4-4-4-4-4-4S6-6-6-6S7-7-7-7-|-----------------6-6-6-6S7-7-7-7-|
||--4-4-4-4-4-4-4-4-----------------|-5-5-5-5-5-5-5-5-----------------|
||o-2-2-2-2-2-2-2-2S4-4-4-4S5-5-5-5-|-5-5-5-5-5-5-5-5S4-4-4-4S5-5-5-5-|
||----------------------------------|-3-3-3-3-3-3-3-3-----------------|
|
||----------------------------------|---------------------------------|
||o---------------------------------|---------------------------------|
||--4-4-4-4-4-4-4-4-4-4-4-4-4-4-4-4-|---------------------------------|
||--4-4-4-4-4-4-4-4-4-4-4-4-4-4-4-4-|-5-5-5-5-5-5-5-5-5-5-5-5-5-5-5-5-|
||o-2-2-2-2-2-2-2-2-2-2-2-2-2-2-2-2-|-5-5-5-5-5-5-5-5-5-5-5-5-5-5-5-5-|
||----------------------------------|-3-3-3-3-3-3-3-3-3-3-3-3-3-3-3-3-|


B5 G F#E D A5
|---------------------------------|--------------|
|---------------------------------|--------------|
|-4-4-4-4-4-4-4-4S6-6-6-6S7-7-7-7-|--------------|
|-4-4-4-4-4-4-4-4-----------------|--------------|
|-2-2-2-2-2-2-2-2S4-4-4-4S5-5-5-5-|---------7----|
|---------------------------------|---------5----|
|
|---------------------------------|--------------|
|---------------------------------|--------------|
|-4-4-4-4-4-4-4-4-4-4-4-4-4-4-4-4-|--------------|
|-4-4-4-4-4-4-4-4-4-4-4-4-4-4-4-4-|-------0------|
|-2-2-2-2-2-2-2-2-2-2-2-2-2-2-2-2-|--------------|
|---------------------------------|-3-2-0---5----|


Outro-Chorus
1.
D5 G5
|---------------------------------|---------------------------------|
|---7-7-7-----------7-7-7---------|---7-7-7-----------7-7-7---------|
|-9-------9-7-7-7-9-------9-7-7-7-|-9-------9-7-7-7-9-------9-7-7-7-|
|---------------------------------|---------------------------------|
|---------------------------------|---------------------------------|
|---------------------------------|---------------------------------|
|
|---------------------------------|---------------------------------|
|---------------------------------|---------------------------------|
|-7-7-7-7-7-7-7-7-7-7-7-7-7-7-7-7-|---------------------------------|
|-7-7-7-7-7-7-7-7-7-7-7-7-7-7-7-7-|-5-5-5-5-5-5-5-5-5-5-5-5-5-5-5-5-|
|-5-5-5-5-5-5-5-5-5-5-5-5-5-5-5-5-|-5-5-5-5-5-5-5-5-5-5-5-5-5-5-5-5-|
|---------------------------------|-3-3-3-3-3-3-3-3-3-3-3-3-3-3-3-3-|


D5 G5
|---------------------------------|-------------------------------------||
|---7-7-7-----------7-7-7---------|---7-7-7-----------7-7-7------------o||
|-9-------9-7-7-7-9-------9-7-7-7-|-9-------9-7-7-7-9-------9-7-7-7-----||
|---------------------------------|-------------------------------------||
|---------------------------------|------------------------------------o||
|---------------------------------|-------------------------------------||
|
|---------------------------------|-------------------------------------||
|---------------------------------|------------------------------------o||
|-7-7-7-7-7-7-7-7-7-7-7-7-7-7-7-7-|-------------------------------------||
|-7-7-7-7-7-7-7-7-7-7-7-7-7-7-7-7-|-5-5-5-5-5-5-5-5-5-5-5-5-5-5-5-5-----||
|-5-5-5-5-5-5-5-5-5-5-5-5-5-5-5-5-|-5-5-5-5-5-5-5-5-5-5-5-5-5-5-5-5----o||
|---------------------------------|-3-3-3-3-3-3-3-3-3-3-3-3-3-3-3-3-----||


Outro
2.
D5 G5
|---------------------------------|---------------------------------|
|-------7---------------7---------|-------7---------------7---------|
|-9-7-9---9-7-7-9-7-7-9---9-7-7-7-|-9-7-9---9-7-7-9-7-7-9---9-7-7-7-|
|---------------------------------|---------------------------------|
|---------------------------------|---------------------------------|
|---------------------------------|---------------------------------|
|
| PM--| PM--|
|---------------------------------|---------------------------------|
|---------------------------------|---------------------------------|
|---7-7---------------7-----------|---------------------------------|
|-7-7-7---------7---7-7-----------|-5-5-5---------------5-----------|
|-5-5-5---------5---5-5-----------|-5-5-5---------5---5-5-----------|
|---------------------------------|-3-3-3---------3---3-3-----------|


D5 G5
|---------------------------------|--------------------------|
|-------7---------------7---------|-------7-------------8----|
|-9-7-9---9-7-7-9-7-7-9---9-7-7-7-|-9-7-9---9-7-7-9-7-7-7----|
|---------------------------------|--------------------------|
|---------------------------------|--------------------------|
|---------------------------------|--------------------------|
|
| PM--| PM--|
|---------------------------------|--------------------------|
|---------------------------------|--------------------------|
|---7-7---------------7-----------|---------------------7----|
|-7-7-7---------7---7-7-----------|-5-5-5---------------5----|
|-5-5-5---------5---5-5-----------|-5-5-5---------5---5-5----|
|---------------------------------|-3-3-3---------3---3-3----|


>
|------------|------------|------------|--------*|
|-(8)--------|-(8)--------|-(8)--------|-(8)----*|
|-(7)--------|-(7)--------|-(7)--------|-(7)----*|
|------------|------------|------------|--------*|
|------------|------------|------------|--------*|
|------------|------------|------------|--------*|
|
| >
|------------|------------|------------|--------*|
|------------|------------|------------|--------*|
|-(7)--------|-(7)--------|-(7)--------|-(7)----*|
|-(5)--------|-(5)--------|-(5)--------|-(5)----*|
|-(5)--------|-(5)--------|-(5)--------|-(5)----*|
|-(3)--------|-(3)--------|-(3)--------|-(3)----*|


Tablature Legend
----------------
h - hammer-on
p - pull-off
b - bend
pb - pre-bend
r - bend release (if no number after the r, then release immediately)
/\ - slide into or out of (from/to "nowhere")
s - legato slide
S - shift slide
- natural harmonic
[n] - artificial harmonic
n(n) - tapped harmonic
~ - vibrato
tr - trill
T - tap
TP - trem. picking
PM - palm muting
\n/ - tremolo bar dip; n = amount to dip
\n - tremolo bar down
n/ - tremolo bar up
/n\ - tremolo bar inverted dip
= - hold bend; also acts as connecting device for hammers/pulls
- volume swell (louder/softer)
x - on rhythm slash represents muted slash
o - on rhythm slash represents single note slash

Misc Legend
-----------
| - bar
|| - double bar
||o - repeat start
o|| - repeat end
*| - double bar (ending)
: - bar (freetime)
$ - Segno
& - Coda
Tempo markers - = BPM(8/16=s8/s16), where s8 = swing 8ths,
s16 = swing 16ths
Tunning: Standard (E A D G B e)
i am pretty sure this tab is right i had to listen to the song with my
headphones and even had to watch the video a couple of times just to
get all the chords and shit right so dont bite my head off if its wrong.
i swear to god that this tab is right.

this song is in standard tunning
Palm Mute = -

Guitar 1 (Steve)
Guitar 2 (Chad)

Intro:Guitar 1
e|--------------------------------|x2
B|--------------------------------|
G|--7-7-7--7--7-7-----------------|
D|--7-7-7--7--7-7--5-5-5--5--5-5--|
A|--5-5-5--5--5-5--5-5-5--5--5-5--|
E|-----------------3-3-3--3--3-3--|
- -
Guitar 2
e|---------------------------------|x4
B|--------7---------------7--------|
G|--9-7-9---9-7-7-9-7-7-9---9-7-7--|
D|---------------------------------|
A|---------------------------------|
E|---------------------------------|

Verse:Guitar 1
e|----------------------------------------------------------------|
B|----------------------------------------------------------------|
G|--7-7-7--7--7-7-----------------7-7-7--7--7-7-------------------|
D|--7-7-7--7--7-7--5-5-5--5--5-5--7-7-7--7--7-7--2-2-2-2-5-5-5-5--|
A|--5-5-5--5--5-5--5-5-5--5--5-5--5-5-5--5--5-5--2-2-2-2-5-5-5-5--|
E|-----------------3-3-3--3--3-3-----------------0-0-0-0-3-3-3-3--|
- - -
Guitar 2
e|--------------------------------------------------------------------|
B|--------------------------------------------------------------------|
G|--7-7-7--7--7-7-----------------7-7-7--7--7-7--9-9-9-9-12-12-12-12--|
D|--7-7-7--7--7-7--5-5-5--5--5-5--7-7-7--7--7-7--x-x-x-x--x--x--x--x--|
A|--5-5-5--5--5-5--5-5-5--5--5-5--5-5-5--5--5-5--7-7-7-7-10-10-10-10--|
E|-----------------3-3-3--3--3-3--------------------------------------|
- - -
Guitar 1
e|----------------------------------------------------------------|
B|----------------------------------------------------------------|
G|--7-7-7--7--7-7-----------------7-7-7--7--7-7-------------------|
D|--7-7-7--7--7-7--5-5-5--5--5-5--7-7-7--7--7-7--2-2-2-2-5-5-5-5--|
A|--5-5-5--5--5-5--5-5-5--5--5-5--5-5-5--5--5-5--2-2-2-2-5-5-5-5--|
E|-----------------3-3-3--3--3-3-----------------0-0-0-0-3-3-3-3--|

Guitar 2
e|-----------------------------------------------------------------|
B|-----------------------------------------------------------------|
G|--7-7-7--7--7-7--------------------7-------7---------------------|
D|--7-7-7--7--7-74/55-5-5--5--5-5-979-9779779-977-2-2-2-2-5-5-5-5--|
A|--5-5-5--5--5-5---5-5-5--5--5-5-----------------2-2-2-2-5-5-5-5--|
E|------------------3-3-3--3--3-3-----------------0-0-0-0-3-3-3-3--|

Pre-Chorus:Guitar 1
e|-------------------------------------------------|
B|-------------------------------------------------|
G|-------------------------------------------------|
D|--2-2-2-2--5-5-5-5--2-2-2-2--5-5-5-5--7-7-7-7-7--|
A|--2-2-2-2--5-5-5-5--2-2-2-2--5-5-5-5--7-7-7-7-7--|
E|--0-0-0-0--3-3-3-3--0-0-0-0--3-3-3-3--5-5-5-5-5--|

Guitar 2
e|-----------------------------------------------------|
B|-----------------------------------------------------|
G|--------------------9-9-9-9--12-12-12-12--9-9-9-9-9--|
D|--2-2-2-2--5-5-5-5--x-x-x-x---x--x--x--x--x-x-x-x-x--|
A|--2-2-2-2--5-5-5-5--7-7-7-7--10-10-10-10--7-7-7-7-7--|
E|--0-0-0-0--3-3-3-3-----------------------------------|

Chorus:Guitar 1
e|------------------------------------------------------------------------------------------------------|
B|------------------------------------------------------------------------------------------------------|
G|--7-7-7-7-7-7-7-7-------------------7-7-7-7-7-7-7-7-------------------4-4-4-4-4-4-4-------------------|
D|--7-7-7-7-7-7-7-7--5-5-5-5-5-5-5-5--7-7-7-7-7-7-7-7--5-5-5-5-5-5-5-5--4-4-4-4-4-4-4--5-5-5-5-5-5-5-5--|
A|--5-5-5-5-5-5-5-5--5-5-5-5-5-5-5-5--5-5-5-5-5-5-5-5--5-5-5-5-5-5-5-5--2-2-2-2-2-2-2--5-5-5-5-5-5-5-5--|
E|-------------------3-3-3-3-3-3-3-3-------------------3-3-3-3-3-3-3-3-----------------3-3-3-3-3-3-3-3--|

e|--------------------------------|
B|--------------------------------|
G|--4-4-4-4-4-4-4-----------------|
D|--4-4-4-4-4-4-4-----------------|
A|--2-2-2-2-2-2-2-----------55----|
E|-----------------33-22-00----5--|

Guitar 2
e|------------------------------------------------------------------------------------------------------|
B|------------------------------------------------------------------------------------------------------|
G|--7-7-7-7-7-7-7-7-7-7-7-7-7-7-7-7-7-66-7-7-7-7-7-7-7-7-7-7-7-7-7-7-7--44444466667777--------66667777--|
D|--x-x-x-x-x-x-x-x-x-x-x-x-x-x-x-x-x-xx-x-x-x-x-x-x-x-x-x-x-x-x-x-x-x--xxxxxxxxxxxxxx--555555xxxxxxxx--|
A|--5-5-5-5-5-5-5-5-5-5-5-5-5-5-5-5-5-44-5-5-5-5-5-5-5-5-5-5-5-5-5-5-5--22222244445555--xxxxxx44445555--|
E|--------------------------------------------------------------------------------------333333----------|

e|---------------------------------|
B|---------------------------------|
G|--44444466667777-----------------|
D|--xxxxxxxxxxxxxx-----------------|
A|--22222244445555-----------55----|
E|-----------------33-22-00-----5--|

Intro
Verse
Pre-Chorus
Chorus: but i just can't finish what i started (slide)

Bridge:Guitar 2
e|---------------------------|
B|---------------------------|
G|---------------------------|
D|---------------------------|
A|--5------5----2------2-----|
E|-----2-3---23----2-3---53--|

Both guitars
e|---------------------------|x3
B|---------------------------|
G|---------------------------|
D|---------------------------|
A|--5------5----2------2-----|
E|-----2-3---23----2-3---53--|

Pre-Chorus:Guitar 1
e|----------------------------------------------------------|
B|----------------------------------------------------------|
G|----------------------------------------------------------|
D|--2-2-2-x--5-5-5-5--2-2-2-x--5-5-5-5--2-2-2-x--7-7-7-7-7--|
A|--2-2-2-x--5-5-5-5--2-2-2-x--5-5-5-5--2-2-2-x--7-7-7-7-7--|
E|--0-0-0-x--3-3-3-3--0-0-0-x--3-3-3-3--0-0-0-x--5-5-5-5-5--|

Guitar 2
e|----------------------------------------------------------|
B|----------------------------------------------------------|
G|-----------------------------------------------9-9-9-9-9--|
D|-----------------------------------------------x-x-x-x-x--|
A|-----------------------------------------------7-7-7-7-7--|
E|----------------------------------------------------------|

Chorus: but i just can't finish what i started (slide)

Chorus:
Guitar 3
e|---------------------------------|x4
B|--------7---------------7--------|
G|--9-7-9---9-7-7-9-7-7-9---9-7-7--|
D|---------------------------------|
A|---------------------------------|
E|---------------------------------|

Outro:Guitar 1
e|--------------------------------|x2
B|--------------------------------|
G|--7-7-7--7--7-7-----------------|
D|--7-7-7--7--7-7--5-5-5--5--5-5--|
A|--5-5-5--5--5-5--5-5-5--5--5-5--|
E|-----------------3-3-3--3--3-3--|
- -
Guitar 2
e|---------------------------------|x4
B|--------7---------------7--------|
G|--9-7-9---9-7-7-9-7-7-9---9-7-7--|
D|---------------------------------|
A|---------------------------------|
E|---------------------------------|

END
well thats it hope you like it.
Tunning: Standard (E A D G B e)
New Found Glory - My Friends Over You
tabbed by Dark_Angel
email : roberto_branger@msn.com

standar tunningd (EADGBe)

pm *
pick scratch ~
slide /

intro

lead
|-------------------------------|-------------------------------|
|---5-5-7-5---5---5-7-5---------|---5-5-7-5---5---5-7-5---------|
|----7-----7-7-7-7-----7-7-7----|----7-----7-7-7-7-----7-7-7----|
|-------------------------------|-------------------------------|
|-------------------------------|-------------------------------|
|-------------------------------|-------------------------------|

rhythem
|-------------------------------|-------------------------------|
|-------------------------------|-------------------------------|
|---7-7-7-----7--7--7-----------|-------------------------------|
|---7-7-7-----7--7--7-----------|---5-5-5-----5--5--5-----------|
|---5-5-5-----5--5--5-----------|---5-5-5-----5--5--5-----------|
|-------------------------------|---3-3-3-----3--3--3-----------|
* * * *


lead
|-------------------------------|-------------------------------|
|---5-5-7-5---5---5-7-5---------|---5---5-7-5----5-5------------|
|----7-----7-7-7-7-----7-7-7----|-----7------7-7--7-------------|
|-------------------------------|-------------------------------|
|-------------------------------|-------------------------------|
|-------------------------------|-------------------------------|

rhythem
|-------------------------------|-------------------------------|
|-------------------------------|-------------------------------|
|---7-7-7-----7--7--7-----------|-------------------------------|
|---7-7-7-----7--7--7-----------|---5-5-5-----5--5--5-----------|
|---5-5-5-----5--5--5-----------|---5-5-5-----5--5--5-----------|
|-------------------------------|---3-3-3-----3--3--3-----------|
* * * *
verse 1

lead
|-------------------------------|-------------------------------|
|-------------------------------|-------------------------------|
|---7-7-7-----7--7--7-----------|-------------------------------|
|---7-7-7-----7--7--7-----------|---5-5-5-----5--5--5-----------|
|---5-5-5-----5--5--5-----------|---5-5-5-----5--5--5-----------|
|-------------------------------|---3-3-3-----3--3--3-----------|
* * * *
rhythem
|-------------------------------|-------------------------------|
|-------------------------------|-------------------------------|
|---7-7-7-----7--7--7-----------|-------------------------------|
|---7-7-7-----7--7--7-----------|---5-5-5-----5--5--5-----------|
|---5-5-5-----5--5--5-----------|---5-5-5-----5--5--5-----------|
|-------------------------------|---3-3-3-----3--3--3-----------|
* * * *


lead
|-------------------------------|-------------------------------|
|-------------------------------|-------------------------------|
|---7-7-7-----7--7--7-----------|--9--9--9-9--------------------|
|---7-7-7-----7--7--7-----------|--9--9--9-9---5--5--5-5-5------|
|---5-5-5-----5--5--5-----------|--7--7--7-7---5--5--5-5-5------|
|-------------------------------|--------------3--3--3-3-3------|
* *
rhythem
|-------------------------------|-------------------------------|
|-------------------------------|-------------------------------|
|---7-7-7-----7--7--7-----------|-------------------------------|
|---7-7-7-----7--7--7-----------|--2--2--2-2---5--5--5-5-5------|
|---5-5-5-----5--5--5-----------|--2--2--2-2---5--5--5-5-5------|
|-------------------------------|--0--0--0-0---3--3--3-3-3------|
* *


lead
|-------------------------------|-------------------------------|
|-------------------------------|-------------------------------|
|---7-7-7-----7--7--7-----------|-------------------------------|
|---7-7-7-----7--7--7-----------|---5-5-5-----5--5--5-----------|
|---5-5-5-----5--5--5-----------|---5-5-5-----5--5--5-----------|
|-------------------------------|---3-3-3-----3--3--3-----------|
* * * *
rhythem
|-------------------------------|-------------------------------|
|-------------------------------|-------------------------------|
|---7-7-7-----7--7--7-----------|-------------------------------|
|---7-7-7-----7--7--7-----------|---5-5-5-----5--5--5-----------|
|---5-5-5-----5--5--5-----------|---5-5-5-----5--5--5-----------|
|-------------------------------|---3-3-3-----3--3--3-----------|
* * * *


lead
|-------------------------------|-------------------------------|
|---5-5-7-5---5---5-7-5---------|-------------------------------|
|----7-----7-7-7-7-----7-7-7----|--9--9--9-9--------------------|
|-------------------------------|--9--9--9-9---5--5--5-5-5------|
|-------------------------------|--7--7--7-7---5--5--5-5-5------|
|-------------------------------|--------------3--3--3-3-3------|

rhythem
|-------------------------------|-------------------------------|
|-------------------------------|-------------------------------|
|---7-7-7-----7--7--7-----------|-------------------------------|
|---7-7-7-----7--7--7-----------|--2--2--2-2---5--5--5-5-5------|
|---5-5-5-----5--5--5-----------|--2--2--2-2---5--5--5-5-5------|
|-------------------------------|--0--0--0-0---3--3--3-3-3------|
* *


lead
|-------------------------------|-------------------------------|
|-------------------------------|-------------------------------|
|--9--9--9-9--------------------|--9--9--9-9--------------------|
|--9--9--9-9---5--5--5-5-5------|--9--9--9-9---5--5--5-5-5------|
|--7--7--7-7---5--5--5-5-5------|--7--7--7-7---5--5--5-5-5------|
|--------------3--3--3-3-3------|--------------3--3--3-3-3------|

rhythem
|-------------------------------|-------------------------------|
|-------------------------------|-------------------------------|
|-------------------------------|-------------------------------|
|--2--2--2-2---5--5--5-5-5------|--2--2--2-2---5--5--5-5-5------|
|--2--2--2-2---5--5--5-5-5------|--2--2--2-2---5--5--5-5-5------|
|--0--0--0-0---3--3--3-3-3------|--0--0--0-0---3--3--3-3-3------|




lead
|-------------------------------|-------------------------------|
|-------------------------------|-------------------------------|
|-------------------------------|-------------------------------|
|--7---7---7---7---7---7--------|--7---7---7--------------------|
|--7---7---7---7---7---7--------|--7---7---7--------------------|
|--5---5---5---5---5---5--------|--5---5---5--------------------|

rhythem
|-------------------------------|-------------------------------|
|-------------------------------|-------------------------------|
|-------------------------------|-------------------------------|
|--7---7---7---7---7---7--------|--7---7---7--------------------|
|--7---7---7---7---7---7--------|--7---7---7--------------------|
|--5---5---5---5---5---5--------|--5---5---5--------------------|

chorus

lead
|-------------------------------|-------------------------------|
|-------------------------------|-------------------------------|
|-7-7-7-7-7-7-7-7-7-7-7-7-7-7-7-|-------------------------------|
|-7-7-7-7-7-7-7-7-7-7-7-7-7-7-7-|-5-5-5-5-5-5-5-5-5-5-5-5-5-5-5-|
|-5-5-5-5-5-5-5-5-5-5-5-5-5-5-5-|-5-5-5-5-5-5-5-5-5-5-5-5-5-5-5-|
|-------------------------------|-3-3-3-3-3-3-3-3-3-3-3-3-3-3-3-|

rhythem
|-------------------------------|-------------------------------|
|-------------------------------|-------------------------------|
|-7-7-7-7-7-7-7-7-7-7-7-7-7-7-7-|-------------------------------|
|-7-7-7-7-7-7-7-7-7-7-7-7-7-7-7-|-5-5-5-5-5-5-5-5-5-5-5-5-5-5-5-|
|-5-5-5-5-5-5-5-5-5-5-5-5-5-5-5-|-5-5-5-5-5-5-5-5-5-5-5-5-5-5-5-|
|-------------------------------|-3-3-3-3-3-3-3-3-3-3-3-3-3-3-3-|




lead
|-------------------------------|-------------------------------|
|-------------------------------|-------------------------------|
|-7-7-7-7-7-7-7-7-7-7-7-7-7-7-7-|-------------------------------|
|-7-7-7-7-7-7-7-7-7-7-7-7-7-7-7-|-5-5-5-5-5-5-5-5---------------|
|-5-5-5-5-5-5-5-5-5-5-5-5-5-5-5-|-5-5-5-5-5-5-5-5~~~~~~~~~~~~~~~|
|-------------------------------|-3-3-3-3-3-3-3-3~~~~~~~~~~~~~~~|

rhythem
|-------------------------------|-------------------------------|
|-------------------------------|-------------------------------|
|-7-7-7-7-7-7-7-7-7-7-7-7-7-7-7-|-------------------------------|
|-7-7-7-7-7-7-7-7-7-7-7-7-7-7-7-|-5-5-5-5-5-5-5-5-5-5-5-5-5-5-5-|
|-5-5-5-5-5-5-5-5-5-5-5-5-5-5-5-|-5-5-5-5-5-5-5-5-5-5-5-5-5-5-5-|
|-------------------------------|-3-3-3-3-3-3-3-3-3-3-3-3-3-3-3-|


lead
|-------------------------------|-------------------------------|
|-------------------------------|-------------------------------|
|-4-4-4-4-4-4-4-4-4-6-6-6-7-7-7-|-------------------6-6-6-7-7-7-|
|-4-4-4-4-4-4-4-4-4-6-6-6-7-7-7-|-5-5-5-5-5-5-5-5-5-6-6-6-7-7-7-|
|-2-2-2-2-2-2-2-2-2-4-4-4-5-5-5-|-5-5-5-5-5-5-5-5-5-4-4-4-5-5-5-|
|-------------------------------|-3-3-3-3-3-3-3-3-3-------------|

rhythem
|-------------------------------|-------------------------------|
|-------------------------------|-------------------------------|
|-4-4-4-4-4-4-4-4-4-4-4-4-4-4-4-|-------------------------------|
|-4-4-4-4-4-4-4-4-4-4-4-4-4-4-4-|-5-5-5-5-5-5-5-5-5-5-5-5-5-5-5-|
|-2-2-2-2-2-2-2-2-2-2-2-2-2-2-2-|-5-5-5-5-5-5-5-5-5-5-5-5-5-5-5-|
|-------------------------------|-3-3-3-3-3-3-3-3-3-3-3-3-3-3-3-|




lead
|-------------------------------|-------------------------------|
|-------------------------------|-------------------------------|
|-4-4-4-4-4-4-4-4-4-6-6-6-7-7-7-|-------------------------------|
|-4-4-4-4-4-4-4-4-4-6-6-6-7-7-7-|-----------------7-------------|
|-2-2-2-2-2-2-2-2-2-4-4-4-5-5-5-|-------------5---7-------------|
|-------------------------------|-3---2---0-------5-------------|

rhythem
|-------------------------------|-------------------------------|
|-------------------------------|-------------------------------|
|-4-4-4-4-4-4-4-4-4-4-4-4-4-4-4-|-------------------------------|
|-4-4-4-4-4-4-4-4-4-4-4-4-4-4-4-|-5-5-5-5-5-5-5-5-7-------------|
|-2-2-2-2-2-2-2-2-2-2-2-2-2-2-2-|-5-5-5-5-5-5-5-5-7-------------|
|-------------------------------|-3-3-3-3-3-3-3-3-5-------------|

then repeat from the begining and when finish the 2nd time goes to the interlude

interlude

lead clean
|-------------------------------|-------------------------------|
|-------------------------------|-------------------------------|
|-------------------------------|-------------------------------|
|--0------0---------------------|--0------0---------------------|
|----------------2------2-------|----------------2------2-------|
|----2--3---2--3---2--3---7--5--|----2--3---2--3---2--3---7--5--|

rhythem with distortion
|-------------------------------|-------------------------------|
|-------------------------------|-------------------------------|
|-------------------------------|-------------------------------|
|-------------------------------|--0------0---------------------|
|-------------------------------|----------------2------2-------|
|-------------------------------|----2--3---2--3---2--3---7--5--|




lead in this last measure the notes are really short
|-------------------------------|-------------------------------|
|-------------------------------|-------------------------------|
|-------------------------------|-------------------------------|
|--0------0---------------------|--5------5---------------------|
|----------------2------2-------|----------------2------2-------|
|----2--3---2--3---2--3---7--5--|----2--3---2--3---2--3---7--5--|

rhythem
|-------------------------------|-------------------------------|
|-------------------------------|-------------------------------|
|-------------------------------|-------------------------------|
|--0------0---------------------|--5------5---------------------|
|----------------2------2-------|----------------2------2-------|
|----2--3---2--3---2--3---7--5--|----2--3---2--3---2--3---7--5--|




lead really clean
|-------------------------------|-------------------------------|
|-------------------------------|-------------------------------|
|-------------------------------|-------------------------------|
|--5--5-5-5-x-5--5-5-5--5-5--x--|--5--5-5-5-x-5--5-5-5--5-5--x--|
|--5--5-5-5-x-5--5-5-5--5-5--x--|--5--5-5-5-x-5--5-5-5--5-5--x--|
|--0--0-0-0-x-3--3-3-3--3-3--x--|--0--0-0-0-x-0--0-0-0--0-0--x--|

rhythem
|-------------------------------|-------------------------------|
|-------------------------------|-------------------------------|
|-------------------------------|-------------------------------|
|-------------------------------|-------------------------------|
|-------------------------------|-------------------------------|
|-------------------------------|-------------------------------|




lead distortion again
|-------------------------------|-------------------------------|
|-------------------------------|-------------------------------|
|-------------------------------|-------------------------------|
|--5--5-5-5-x-5--5-5-5--5-5--x--|--7-7-7-7-7-7-7-7-7-7----------|
|--5--5-5-5-x-5--5-5-5--5-5--x--|--7-7-7-7-7-7-7-7-7-7----------|
|--0--0-0-0-x-3--3-3-3--3-3--x--|--5-5-5-5-5-5-5-5-5-5----------|

rhythem
|-------------------------------|-------------------------------|
|-------------------------------|-------------------------------|
|-------------------------------|-------------------------------|
|-------------------------------|--7-7-7-7-7-7-7-7-7-7----------|
|-------------------------------|--7-7-7-7-7-7-7-7-7-7----------|
|-------------------------------|--5-5-5-5-5-5-5-5-5-5----------|

chorus

lead
|-------------------------------|-------------------------------|
|-------------------------------|-------------------------------|
|-7-7-7-7-7-7-7-7-7-7-7-7-7-7-7-|-------------------------------|
|-7-7-7-7-7-7-7-7-7-7-7-7-7-7-7-|-5-5-5-5-5-5-5-5-5-5-5-5-5-5-5-|
|-5-5-5-5-5-5-5-5-5-5-5-5-5-5-5-|-5-5-5-5-5-5-5-5-5-5-5-5-5-5-5-|
|-------------------------------|-3-3-3-3-3-3-3-3-3-3-3-3-3-3-3-|

rhythem
|-------------------------------|-------------------------------|
|-------------------------------|-------------------------------|
|-7-7-7-7-7-7-7-7-7-7-7-7-7-7-7-|-------------------------------|
|-7-7-7-7-7-7-7-7-7-7-7-7-7-7-7-|-5-5-5-5-5-5-5-5-5-5-5-5-5-5-5-|
|-5-5-5-5-5-5-5-5-5-5-5-5-5-5-5-|-5-5-5-5-5-5-5-5-5-5-5-5-5-5-5-|
|-------------------------------|-3-3-3-3-3-3-3-3-3-3-3-3-3-3-3-|




lead
|-------------------------------|-------------------------------|
|-------------------------------|-------------------------------|
|-7-7-7-7-7-7-7-7-7-7-7-7-7-7-7-|-------------------------------|
|-7-7-7-7-7-7-7-7-7-7-7-7-7-7-7-|-5-5-5-5-5-5-5-5---------------|
|-5-5-5-5-5-5-5-5-5-5-5-5-5-5-5-|-5-5-5-5-5-5-5-5~~~~~~~~~~~~~~~|
|-------------------------------|-3-3-3-3-3-3-3-3~~~~~~~~~~~~~~~|

rhythem
|-------------------------------|-------------------------------|
|-------------------------------|-------------------------------|
|-7-7-7-7-7-7-7-7-7-7-7-7-7-7-7-|-------------------------------|
|-7-7-7-7-7-7-7-7-7-7-7-7-7-7-7-|-5-5-5-5-5-5-5-5-5-5-5-5-5-5-5-|
|-5-5-5-5-5-5-5-5-5-5-5-5-5-5-5-|-5-5-5-5-5-5-5-5-5-5-5-5-5-5-5-|
|-------------------------------|-3-3-3-3-3-3-3-3-3-3-3-3-3-3-3-|




lead
|-------------------------------|-------------------------------|
|-------------------------------|-------------------------------|
|-4-4-4-4-4-4-4-4-4-6-6-6-7-7-7-|-------------------6-6-6-7-7-7-|
|-4-4-4-4-4-4-4-4-4-6-6-6-7-7-7-|-5-5-5-5-5-5-5-5-5-6-6-6-7-7-7-|
|-2-2-2-2-2-2-2-2-2-4-4-4-5-5-5-|-5-5-5-5-5-5-5-5-5-4-4-4-5-5-5-|
|-------------------------------|-3-3-3-3-3-3-3-3-3-------------|

rhythem
|-------------------------------|-------------------------------|
|-------------------------------|-------------------------------|
|-4-4-4-4-4-4-4-4-4-4-4-4-4-4-4-|-------------------------------|
|-4-4-4-4-4-4-4-4-4-4-4-4-4-4-4-|-5-5-5-5-5-5-5-5-5-5-5-5-5-5-5-|
|-2-2-2-2-2-2-2-2-2-2-2-2-2-2-2-|-5-5-5-5-5-5-5-5-5-5-5-5-5-5-5-|
|-------------------------------|-3-3-3-3-3-3-3-3-3-3-3-3-3-3-3-|




lead
|-------------------------------|-------------------------------|
|-------------------------------|-------------------------------|
|-4-4-4-4-4-4-4-4-4-6-6-6-7-7-7-|-------------------------------|
|-4-4-4-4-4-4-4-4-4-6-6-6-7-7-7-|-----------------7-------------|
|-2-2-2-2-2-2-2-2-2-4-4-4-5-5-5-|-------------5---7-------------|
|-------------------------------|-3---2---0-------5-------------|

rhythem
|-------------------------------|-------------------------------|
|-------------------------------|-------------------------------|
|-4-4-4-4-4-4-4-4-4-4-4-4-4-4-4-|-------------------------------|
|-4-4-4-4-4-4-4-4-4-4-4-4-4-4-4-|-5-5-5-5-5-5-5-5-7-------------|
|-2-2-2-2-2-2-2-2-2-2-2-2-2-2-2-|-5-5-5-5-5-5-5-5-7-------------|
|-------------------------------|-3-3-3-3-3-3-3-3-5-------------|

chorus

lead
|-------------------------------|-------------------------------|
|-------------------------------|-------------------------------|
|-7-7-7-7-7-7-7-7-7-7-7-7-7-7-7-|-------------------------------|
|-7-7-7-7-7-7-7-7-7-7-7-7-7-7-7-|-5-5-5-5-5-5-5-5-5-5-5-5-5-5-5-|
|-5-5-5-5-5-5-5-5-5-5-5-5-5-5-5-|-5-5-5-5-5-5-5-5-5-5-5-5-5-5-5-|
|-------------------------------|-3-3-3-3-3-3-3-3-3-3-3-3-3-3-3-|

rhythem
|-------------------------------|-------------------------------|
|-------------------------------|-------------------------------|
|-7-7-7-7-7-7-7-7-7-7-7-7-7-7-7-|-------------------------------|
|-7-7-7-7-7-7-7-7-7-7-7-7-7-7-7-|-5-5-5-5-5-5-5-5-5-5-5-5-5-5-5-|
|-5-5-5-5-5-5-5-5-5-5-5-5-5-5-5-|-5-5-5-5-5-5-5-5-5-5-5-5-5-5-5-|
|-------------------------------|-3-3-3-3-3-3-3-3-3-3-3-3-3-3-3-|




lead
|-------------------------------|-------------------------------|
|-------------------------------|-------------------------------|
|-7-7-7-7-7-7-7-7-7-7-7-7-7-7-7-|-------------------------------|
|-7-7-7-7-7-7-7-7-7-7-7-7-7-7-7-|-5-5-5-5-5-5-5-5---------------|
|-5-5-5-5-5-5-5-5-5-5-5-5-5-5-5-|-5-5-5-5-5-5-5-5~~~~~~~~~~~~~~~|
|-------------------------------|-3-3-3-3-3-3-3-3~~~~~~~~~~~~~~~|

rhythem
|-------------------------------|-------------------------------|
|-------------------------------|-------------------------------|
|-7-7-7-7-7-7-7-7-7-7-7-7-7-7-7-|-------------------------------|
|-7-7-7-7-7-7-7-7-7-7-7-7-7-7-7-|-5-5-5-5-5-5-5-5-5-5-5-5-5-5-5-|
|-5-5-5-5-5-5-5-5-5-5-5-5-5-5-5-|-5-5-5-5-5-5-5-5-5-5-5-5-5-5-5-|
|-------------------------------|-3-3-3-3-3-3-3-3-3-3-3-3-3-3-3-|



lead
|-------------------------------|-------------------------------|
|-------------------------------|-------------------------------|
|-4-4-4-4-4-4-4-4-4-6-6-6-7-7-7-|-------------------6-6-6-7-7-7-|
|-4-4-4-4-4-4-4-4-4-6-6-6-7-7-7-|-5-5-5-5-5-5-5-5-5-6-6-6-7-7-7-|
|-2-2-2-2-2-2-2-2-2-4-4-4-5-5-5-|-5-5-5-5-5-5-5-5-5-4-4-4-5-5-5-|
|-------------------------------|-3-3-3-3-3-3-3-3-3-------------|

rhythem
|-------------------------------|-------------------------------|
|-------------------------------|-------------------------------|
|-4-4-4-4-4-4-4-4-4-4-4-4-4-4-4-|-------------------------------|
|-4-4-4-4-4-4-4-4-4-4-4-4-4-4-4-|-5-5-5-5-5-5-5-5-5-5-5-5-5-5-5-|
|-2-2-2-2-2-2-2-2-2-2-2-2-2-2-2-|-5-5-5-5-5-5-5-5-5-5-5-5-5-5-5-|
|-------------------------------|-3-3-3-3-3-3-3-3-3-3-3-3-3-3-3-|

outro

lead
|-------------------------------|-------------------------------|
|---5-5-7-5---5---5-7-5---------|-5-5-7-5---5---5-7-5-----------|
|----7-----7-7-7-7-----7-7-7----|--7-----7-7-7-7-----7-7-7------|
|-------------------------------|-------------------------------|
|-------------------------------|-------------------------------|
|-------------------------------|-------------------------------|

rhythem
|-------------------------------|-------------------------------|
|-------------------------------|-------------------------------|
|---7-7-7-----7--7--7-----------|-------------------------------|
|---7-7-7-----7--7--7-----------|---5-5-5-----5--5--5-----------|
|---5-5-5-----5--5--5-----------|---5-5-5-----5--5--5-----------|
|-------------------------------|---3-3-3-----3--3--3-----------|
* * * *


lead
|-------------------------------|-------------------------------|
|---5-5-7-5---5---5-7-5---------|---5---5-7-5----5-5------------|
|----7-----7-7-7-7-----7-7-7----|-----7------7-7--7-------------|
|-------------------------------|-------------------------------|
|-------------------------------|-------------------------------|
|-------------------------------|-------------------------------|

rhythem
|-------------------------------|-------------------------------|
|-------------------------------|-------------------------------|
|---7-7-7-----7--7--7-----------|-------------------------------|
|---7-7-7-----7--7--7-----------|---5-5-5-----5--5--5-----------|
|---5-5-5-----5--5--5-----------|---5-5-5-----5--5--5-----------|
|-------------------------------|---3-3-3-----3--3--3-----------|
* * * *

i have this tab for bass too
Tunning: Nashville (E A D G B E)
Q = 178


[Intro]

Guitar 1
E|-----------------|-----------------|-----------------|-----------------|
B|-----------------|-----------------|-----------------|-----------------|
G|-----------------|-----------------|-----------------|-----------------|
D|-7-7-7---------7-|---7-7-----------|-----------------|-----------------|
A|-5-5-5---------5-|---5-5-----------|-5-5-5---------5-|---5-5-----------|
E|-----------------|-----------------|-3-3-3---------3-|---3-3-----------|
. . . .

Guitar 2
E|-----------------|-----------------|-----------------|-----------------|
B|-5---5-7-5-----5-|-----5-7-5-------|-5---5-7-5-----5-|-----5-7-5-------|
G|---7-------7-7---|-7-7-------7-7-7-|---7-------7-7---|-7-7-------7-7-7-|
D|-----------------|-----------------|-----------------|-----------------|
A|-----------------|-----------------|-----------------|-----------------|
E|-----------------|-----------------|-----------------|-----------------|

Guitar 1
E|-----------------|-----------------|-----------------|-----------------|
B|-----------------|-----------------|-----------------|-----------------|
G|-----------------|-----------------|-----------------|-----------------|
D|-7-7-7---------7-|---7-7-----------|-----------------|-----------------|
A|-5-5-5---------5-|---5-5-----------|-5-5-5---------5-|---5-5-----------|
E|-----------------|-----------------|-3-3-3---------3-|---3-3-----------|
. . . .

Guitar 2
E|-----------------|-----------------|-----------------|-----3-----------|
B|-5---5-7-5-----5-|-----5-7-5-------|-5---5-7-5-----5-|-----3-----------|
G|---7-------7-7---|-7-7-------7-7-7-|---7-------7-7---|-7-7-0-----------|
D|-----------------|-----------------|-----------------|-----------------|
A|-----------------|-----------------|-----------------|-----------------|
E|-----------------|-----------------|-----------------|-----------------|


[Verse]

Guitars 1 & 2
E|-----------------|-----------------|-----------------|-----------------|
B|-----------------|-----------------|-----------------|-----------------|
G|-----------------|-----------------|-----------------|-----------------|
D|-7-7-7---------7-|---7-7-----------|-----------------|-----------------|
A|-5-5-5---------5-|---5-5-----------|-5-5-5---------5-|---5-5-----------|
E|-----------------|-----------------|-3-3-3---------3-|---3-3-----------|
. . . .

Guitar 1
E|-----------------|-----------------|-----------------|-----------------|
B|-----------------|-----------------|-----------------|-----------------|
G|-----------------|-----------------|-----------------|-----------------|
D|-7-7-7---------7-|---7-7-----------|-----------------|-----------------|
A|-5-5-5---------5-|---5-5-----------|-2--2----2-2-2-4-|-5--5----5-5-5-4-|
E|-----------------|-----------------|-0--0----0-0-0-2-|-3--3----3-3-3-2-|
. .

Guitar 2
E|-----------------|-----------------|------------------|-----------------------|
B|-----------------|-----------------|------------------|-----------------------|
G|-----------------|-----------------|-9--9----9-9-9-11-|-12--12----12-12-12-11-|
D|-7-7-7---------7-|---7-7-----------|-x--x----x-x-x--x-|--x---x-----x--x--x--x-|
A|-5-5-5---------5-|---5-5-----------|-7--7----7-7-7--9-|-10--10----10-10-10--9-|
E|-----------------|-----------------|------------------|-----------------------|
. .

Guitar 1
E|-----------------|-----------------|-----------------|-----------------|
B|-----------------|-----------------|-----------------|-----------------|
G|-----------------|-----------------|-----------------|-----------------|
D|-7-7-7---------7-|---7-7-----------|-----------------|-----------------|
A|-5-5-5---------5-|---5-5-----------|-5-5-5---------5-|---5-5-----------|
E|-----------------|-----------------|-3-3-3---------3-|---3-3-----------|
. . . .

Guitar 2
E|-----------------|-----------------|-----------------|-----------------|
B|-----------------|-----------------|-----------------|-----------------|
G|-----------------|-----------------|-----------------|-----------------|
D|-7-7-7---------7-|---7-7-------4h5-|-----------------|-----------------|
A|-5-5-5---------5-|---5-5------5----|-5-5-5---------5-|---5-5-----------|
E|-----------------|-----------------|-3-3-3---------3-|---3-3-----------|
. . . . .

Guitar 1
E|-----------------|-----------------|
B|-----------------|-----------------|
G|-----------------|-----------------|
D|-7-7-7---------7-|---7-7-----------|
A|-5-5-5---------5-|---5-5-----------|
E|-----------------|-----------------|
. .

Guitar 2
E|-----------------|-----------------|
B|-5---5-7-5-----5-|-----5-7-5-------|
G|---7-------7-7---|-7-7-------7-7-7-|
D|-----------------|-----------------|
A|-----------------|-----------------|
E|-----------------|-----------------|


[Pre-Chorus]

Guitars 1 & 2
E|-----------------|-----------------|-----------------|-----------------|
B|-----------------|-----------------|-----------------|-----------------|
G|-----------------|-----------------|-----------------|-----------------|
D|-----------------|-----------------|-----------------|-----------------|
A|-2--2----2-2-2-4-|-5--5----5-5-5-4-|-2--2----2-2-2-4-|-5--5----5-5-5-4-|
E|-0--0----0-0-0-2-|-3--3----3-3-3-2-|-0--0----0-0-0-2-|-3--3----3-3-3-2-|

Guitar 1
E|-----------------|-----------------|
B|-----------------|-----------------|
G|-----------------|-----------------|
D|-----------------|-----------------|
A|-2--2----2-2-2-4-|-5--5----5-5-5-4-|
E|-0--0----0-0-0-2-|-3--3----3-3-3-2-|

Guitar 2
E|------------------|-----------------------|
B|------------------|-----------------------|
G|-9--9----9-9-9-11-|-12--12----12-12-12-11-|
D|-x--x----x-x-x--x-|--x---x-----x--x--x--x-|
A|-7--7----7-7-7--9-|-10--10----10-10-10--9-|
E|------------------|-----------------------|

Guitar 1
E|-----------------|-------|
B|-----------------|-------|
G|-----------------|-------|
D|-----------------|-------|
A|-7-7-x-7-7-7-x-7-|-7-7-7-|
E|-5-5-x-5-5-5-x-5-|-5-5-5-|

Guitar 2
E|-----------------|-------|
B|-----------------|-------|
G|-9-9-x-9-9-9-x-9-|-9-9-9-|
D|-x-x-x-x-x-x-x-x-|-x-x-x-|
A|-7-7-x-7-7-7-x-7-|-7-7-7-|
E|-----------------|-------|


[Chorus]

Guitar 1
E|-----------------|-----------------|-----------------|-----------------|
B|-----------------|-----------------|-----------------|-----------------|
G|-----------------|-----------------|-----------------|-----------------|
D|-7-7-7-7-7-7-7-7-|-7-7-7-7-7-7-7-7-|-----------------|---------------0-|
A|-5-5-5-5-5-5-5-5-|-5-5-5-5-5-5-5-5-|-5-5-5-5-5-5-5-5-|-5-5-5-5-5-5-5-0-|
E|-----------------|-----------------|-3-3-3-3-3-3-3-3-|-3-3-3-3-3-3-3---|

Guitar 2
E|-----------------|-----------------|-----------------|-----------------|
B|-----------------|-----------------|-----------------|-----------------|
G|-7-7-7-7-7-7-7-7-|-7-7-7-7-7-7-7-7-|-7-7-7-7-7-7-7-7-|-7-7-7-7-7-6-6-6-|
D|-x-x-x-x-x-x-x-x-|-x-x-x-x-x-x-x-x-|-x-x-x-x-x-x-x-x-|-x-x-x-x-x-x-x-x-|
A|-5-5-5-5-5-5-5-5-|-5-5-5-5-5-5-5-5-|-5-5-5-5-5-5-5-5-|-5-5-5-5-5-4-4-4-|
E|-----------------|-----------------|-----------------|-----------------|

Guitar 1
E|-----------------|-----------------|-----------------|-----------------|
B|-----------------|-----------------|-----------------|-----------------|
G|-----------------|-----------------|-----------------|-----------------|
D|-7-7-7-7-7-7-7-7-|-7-7-7-7-7-7-7-7-|-----------------|---------------0-|
A|-5-5-5-5-5-5-5-5-|-5-5-5-5-5-5-5-5-|-5-5-5-5-5-5-5-5-|-5-5-5-5-5-5-5-0-|
E|-----------------|-----------------|-3-3-3-3-3-3-3-3-|-3-3-3-3-3-3-3---|

Guitar 2
E|-----------------|-----------------|-----------------|-----------------|
B|-----------------|-----------------|-----------------|-----------------|
G|-----------------|-------------0-0-|-----------------|-----------------|
D|-7-7-7-7-7-7-7-7-|-7-7-7-7-7-7-0-0-|-----------------|-----------------|
A|-5-5-5-5-5-5-5-5-|-5-5-5-5-5-5-0-0-|-5-5-5-5-5-5-5-5-|-----------------|
E|-----------------|-----------------|-3-3-3-3-3-3-3-3-|-x\--------------|
(Pickslide!)
Guitar 3
E|-----------------|-----------------|-----------------|-----------------|
B|-----------------|-----------------|-----------------|-----------------|
G|-7-7-7-7-7-7-7-7-|-7-7-7-7-7-7-7-7-|-7-7-7-7-7-7-7-7-|-7-7-7-7-7-7-7-7-|
D|-x-x-x-x-x-x-x-x-|-x-x-x-x-x-x-x-x-|-x-x-x-x-x-x-x-x-|-x-x-x-x-x-x-x-x-|
A|-5-5-5-5-5-5-5-5-|-5-5-5-5-5-5-5-5-|-5-5-5-5-5-5-5-5-|-5-5-5-5-5-5-5-5-|
E|-----------------|-----------------|-----------------|-----------------|

Guitar 1
E|-----------------|-----------------|-----------------|-----------------|
B|-----------------|-----------------|-----------------|-----------------|
G|-----------------|-----------------|-----------------|-----------------|
D|-4-4-4-4-4-4-4-4-|-4-4-4-4-4-4-4-0-|-----------------|-----------------|
A|-2-2-2-2-2-2-2-2-|-2-2-2-2-2-2-2-0-|-5-5-5-5-5-5-5-5-|-5-5-5-5-5-5-5-0-|
E|-----------------|-----------------|-3-3-3-3-3-3-3-3-|-3-3-3-3-3-3-3---|

Guitar 2
E|-----------------|-----------------|-----------------|-----------------|
B|-----------------|-----------------|-----------------|-----------------|
G|-4-4-4-4-4-4-4-4-|-6-6-6-6-7-7-7-7-|-7-7-7-7-7-7-7-7-|-6-6-6-6-7-7-7-7-|
D|-x-x-x-x-x-x-x-x-|-x-x-x-x-x-x-x-x-|-x-x-x-x-x-x-x-x-|-x-x-x-x-x-x-x-x-|
A|-2-2-2-2-2-2-2-2-|-4-4-4-4-5-5-5-5-|-5-5-5-5-5-5-5-5-|-4-4-4-4-5-5-5-5-|
E|-----------------|-----------------|-----------------|-----------------|

Guitar 1
E|-----------------|-----------------|-----------------|-----------------|
B|-----------------|-----------------|-----------------|-----------------|
G|-----------------|-----------------|-----------------|-----------------|
D|-4-4-4-4-4-4-4-4-|-4-4-4-4-4-4-4-4-|-----------------|-----------------|
A|-2-2-2-2-2-2-2-2-|-2-2-2-2-2-2-2-2-|-----------------|-----------------|
E|-----------------|-----------------|-----------------|-----------------|

Guitar 2
E|-----------------|-----------------|-----------------|-----------------|
B|-----------------|-----------------|-----------------|-----------------|
G|-4-4-4-4-4-4-4-4-|-6-6-6-6-7-7-7-7-|-----------------|-----------------|
D|-x-x-x-x-x-x-x-x-|-x-x-x-x-x-x-x-x-|-----------------|-----------------|
A|-2-2-2-2-2-2-2-2-|-4-4-4-4-5-5-5-5-|-------------5-5-|-0---------------|
E|-----------------|-----------------|-3-3-2-2-0-0-----|-----------------|


--------------------
Intro
--------------------


--------------------
Verse
--------------------


--------------------
Pre-Chorus
--------------------


--------------------
Chorus
--------------------


[Interlude]

Guitar 1
E|-------------|-------------|-------------|-------------|
B|-------------|-------------|-------------|-------------|
G|-7-----------|-7-----------|-4-----------|-4-----------|
D|-x----4----5-|-x----4----5-|-x----4----5-|-x----7----5-|
A|-5----x----x-|-5----x----x-|-2----x----x-|-2----x----x-|
E|------2----3-|------2----3-|------2----3-|------5----3-|

Guitar 2
E|-------------|-------------|-------------|-------------|
B|-------------|-------------|-------------|-------------|
G|-------------|-------------|-------------|-------------|
D|-------------|-------------|-------------|-------------|
A|-------------|-------------|-------------|-------------|
E|-------------|-------------|-------------|-------------|

Guitars 1 & 2
E|-------------|-------------|-------------|-------------|
B|-------------|-------------|-------------|-------------|
G|-------------|-------------|-------------|-------------|
D|-------------|-------------|-4-----------|-4-----------|
A|-5----4----5-|-5----4----5-|-2----4----5-|-2----7----5-|
E|------2----3-|------2----3-|------2----3-|------5----3-|

Guitars 1 & 2
E|-------------|-------------|-------------|-------------|
B|-------------|-------------|-------------|-------------|
G|-------------|-------------|-------------|-------------|
D|-------------|-------------|-4-----------|-4-----------|
A|-5----4----5-|-5----4----5-|-2----4----5-|-2----7----5-|
E|------2----3-|------2----3-|------2----3-|------5----3-|

Guitar 1
E|-------------|-------------|-------------|-------------|
B|-------------|-------------|-------------|-------------|
G|-------------|-------------|-------------|-------------|
D|-------------|-------------|-4-----------|-4-----------|
A|-5----4----5-|-5----4----5-|-2----4----5-|-2----7----5-|
E|------2----3-|------2----3-|------2----3-|------5----3-|

Guitar 2
E|-------------|-------------|-------------|-------------|
B|-------------|-------------|-------------|-------------|
G|-------------|-------------|-------------|-------------|
D|-------------|-------------|-------------|-------------|
A|-------------|-------------|-------------|-------------|
E|-------------|-------------|-------------|-------------|


[Bridge]

Guitar 1 (Clean tone!)
E|------------|--------------|------------|-------------|
B|------------|--------------|------------|-------------|
G|------------|--------------|------------|-------------|
D|------------|--------------|------------|-------------|
A|-5----x---5-|-5----5-5-5-5-|------x---5-|-5----5--5-5-|
E|-0----x-0-2-|-3----3-3-3-3-|-0----x-0-2-|-3----3--3-3-|

Guitar 2 (Hold this chord throughout the measures.)
E|------------|--------------|------------|-------------|
B|------------|--------------|------------|-------------|
G|------------|--------------|------------|-------------|
D|-2----------|--------------|------------|-------------|
A|-2----------|--------------|------------|-------------|
E|-0----------|--------------|------------|-------------|

Guitar 1
E|------------|--------------|-----------------|-------|
B|------------|--------------|-----------------|-------|
G|------------|--------------|-9-9---9-9-9---9-|-9-9-9-|
D|------------|--------------|-x-x-x-x-x-x-x-x-|-x-x-x-|
A|-5----x-0-5-|-5----5-5-5-5-|-7-7-x-7-7-7-x-7-|-7-7-7-|
E|-0----x---2-|-3----3-3-3-3-|-----------------|-------|

Guitar 2
E|------------|--------------|-----------------|---------|
B|------------|--------------|-----------------|---------|
G|------------|--------------|-----------------|---------|
D|-2----------|--------------|-----------------|---------|
A|-2----------|--------------|-7-7-x-7-7-7-x-7-|-7-7-7-3-|
E|-0----------|--------------|-5-5-x-5-5-5-x-5-|-5-5-5---|
+

[Chorus]

Guitar 1
E|-----------------|-----------------|-----------------|-----------------|
B|-----------------|-----------------|-----------------|-----------------|
G|-----------------|-----------------|-----------------|-----------------|
D|-7-7-7-7-7-7-7-7-|-7-7-7-7-7-7-7-7-|-----------------|---------------0-|
A|-5-5-5-5-5-5-5-5-|-5-5-5-5-5-5-5-5-|-5-5-5-5-5-5-5-5-|-5-5-5-5-5-5-5-0-|
E|-----------------|-----------------|-3-3-3-3-3-3-3-3-|-3-3-3-3-3-3-3---|

Guitar 2
E|-----------------|-----------------|-----------------|-----------------|
B|-----------------|-----------------|-----------------|-----------------|
G|-7-7-7-7-7-7-7-7-|-7-7-7-7-7-7-7-7-|-7-7-7-7-7-7-7-7-|-7-7-7-7-7-6-6-6-|
D|-x-x-x-x-x-x-x-x-|-x-x-x-x-x-x-x-x-|-x-x-x-x-x-x-x-x-|-x-x-x-x-x-x-x-x-|
A|-5-5-5-5-5-5-5-5-|-5-5-5-5-5-5-5-5-|-5-5-5-5-5-5-5-5-|-5-5-5-5-5-4-4-4-|
E|-----------------|-----------------|-----------------|-----------------|

Guitar 1
E|-----------------|-----------------|-----------------|-----------------|
B|-----------------|-----------------|-----------------|-----------------|
G|-----------------|-----------------|-----------------|-----------------|
D|-7-7-7-7-7-7-7-7-|-7-7-7-7-7-7-7-7-|-----------------|---------------0-|
A|-5-5-5-5-5-5-5-5-|-5-5-5-5-5-5-5-5-|-5-5-5-5-5-5-5-5-|-5-5-5-5-5-5-5-0-|
E|-----------------|-----------------|-3-3-3-3-3-3-3-3-|-3-3-3-3-3-3-3---|

Guitar 2
E|-----------------|-----------------|-----------------|-----------------|
B|-----------------|-----------------|-----------------|-----------------|
G|-----------------|-------------0-0-|-----------------|-----------------|
D|-7-7-7-7-7-7-7-7-|-7-7-7-7-7-7-0-0-|-----------------|-----------------|
A|-5-5-5-5-5-5-5-5-|-5-5-5-5-5-5-0-0-|-5-5-5-5-5-5-5-5-|-----------------|
E|-----------------|-----------------|-3-3-3-3-3-3-3-3-|-x\--------------|
(Pickslide!)
Guitar 3
E|-----------------|-----------------|-----------------|-----------------|
B|-----------------|-----------------|-----------------|-----------------|
G|-7-7-7-7-7-7-7-7-|-7-7-7-7-7-7-7-7-|-7-7-7-7-7-7-7-7-|-7-7-7-7-7-7-7-7-|
D|-x-x-x-x-x-x-x-x-|-x-x-x-x-x-x-x-x-|-x-x-x-x-x-x-x-x-|-x-x-x-x-x-x-x-x-|
A|-5-5-5-5-5-5-5-5-|-5-5-5-5-5-5-5-5-|-5-5-5-5-5-5-5-5-|-5-5-5-5-5-5-5-5-|
E|-----------------|-----------------|-----------------|-----------------|

Guitar 1
E|-----------------|-----------------|-----------------|-----------------|
B|-----------------|-----------------|-----------------|-----------------|
G|-----------------|-----------------|-----------------|-----------------|
D|-4-4-4-4-4-4-4-4-|-4-4-4-4-4-4-4-0-|-----------------|-----------------|
A|-2-2-2-2-2-2-2-2-|-2-2-2-2-2-2-2-0-|-5-5-5-5-5-5-5-5-|-5-5-5-5-5-5-5-0-|
E|-----------------|-----------------|-3-3-3-3-3-3-3-3-|-3-3-3-3-3-3-3---|

Guitar 2
E|-----------------|-----------------|-----------------|-----------------|
B|-----------------|-----------------|-----------------|-----------------|
G|-4-4-4-4-4-4-4-4-|-6-6-6-6-7-7-7-7-|-7-7-7-7-7-7-7-7-|-6-6-6-6-7-7-7-7-|
D|-x-x-x-x-x-x-x-x-|-x-x-x-x-x-x-x-x-|-x-x-x-x-x-x-x-x-|-x-x-x-x-x-x-x-x-|
A|-2-2-2-2-2-2-2-2-|-4-4-4-4-5-5-5-5-|-5-5-5-5-5-5-5-5-|-4-4-4-4-5-5-5-5-|
E|-----------------|-----------------|-----------------|-----------------|

Guitar 1
E|-----------------|-----------------|-----------------|-----------------|
B|-----------------|-----------------|-----------------|-----------------|
G|-----------------|-----------------|-----------------|-----------------|
D|-4-4-4-4-4-4-4-4-|-4-4-4-4-4-4-4-4-|-----------------|-----------------|
A|-2-2-2-2-2-2-2-2-|-2-2-2-2-2-2-2-2-|-----------------|-----------------|
E|-----------------|-----------------|-----------------|-----------------|

Guitar 2
E|-----------------|-----------------|-----------------|-----------------|
B|-----------------|-----------------|-----------------|-----------------|
G|-4-4-4-4-4-4-4-4-|-6-6-6-6-7-7-7-7-|-----------------|-----------------|
D|-x-x-x-x-x-x-x-x-|-x-x-x-x-x-x-x-x-|-----------------|-----------------|
A|-2-2-2-2-2-2-2-2-|-4-4-4-4-5-5-5-5-|-------------5-5-|-0---------------|
E|-----------------|-----------------|-3-3-2-2-0-0-----|-----------------|

Guitar 1
E|-----------------|-----------------|-----------------|-----------------|
B|-----------------|-----------------|-----------------|-----------------|
G|-----------------|-----------------|-----------------|-----------------|
D|-7-7-7-7-7-7-7-7-|-7-7-7-7-7-7-7-7-|-----------------|---------------0-|
A|-5-5-5-5-5-5-5-5-|-5-5-5-5-5-5-5-5-|-5-5-5-5-5-5-5-5-|-5-5-5-5-5-5-5-0-|
E|-----------------|-----------------|-3-3-3-3-3-3-3-3-|-3-3-3-3-3-3-3---|

Guitar 2
E|-----------------|-----------------|-----------------|-----------------|
B|-----------------|-----------------|-----------------|-----------------|
G|-7-7-7-7-7-7-7-7-|-7-7-7-7-7-7-7-7-|-7-7-7-7-7-7-7-7-|-7-7-7-7-7-6-6-6-|
D|-x-x-x-x-x-x-x-x-|-x-x-x-x-x-x-x-x-|-x-x-x-x-x-x-x-x-|-x-x-x-x-x-x-x-x-|
A|-5-5-5-5-5-5-5-5-|-5-5-5-5-5-5-5-5-|-5-5-5-5-5-5-5-5-|-5-5-5-5-5-4-4-4-|
E|-----------------|-----------------|-----------------|-----------------|

Guitar 3
E|-----------------|-----------------|-----------------|-----------------|
B|-5---5-7-5-----5-|-----5-7-5-------|-5---5-7-5-----5-|-----5-7-5-------|
G|---7-------7-7---|-7-7-------7-7-7-|---7-------7-7---|-7-7-------7-7-7-|
D|-----------------|-----------------|-----------------|-----------------|
A|-----------------|-----------------|-----------------|-----------------|
E|-----------------|-----------------|-----------------|-----------------|

Guitar 1
E|-----------------|-----------------|-----------------|-----------------|
B|-----------------|-----------------|-----------------|-----------------|
G|-----------------|-----------------|-----------------|-----------------|
D|-7-7-7-7-7-7-7-7-|-7-7-7-7-7-7-7-7-|-----------------|---------------0-|
A|-5-5-5-5-5-5-5-5-|-5-5-5-5-5-5-5-5-|-5-5-5-5-5-5-5-5-|-5-5-5-5-5-5-5-0-|
E|-----------------|-----------------|-3-3-3-3-3-3-3-3-|-3-3-3-3-3-3-3---|

Guitar 2
E|-----------------|-----------------|-----------------|-----------------|
B|-----------------|-----------------|-----------------|-----------------|
G|-7-7-7-7-7-7-7-7-|-7-7-7-7-7-7-7-7-|-7-7-7-7-7-7-7-7-|-7-7-7-7-7-7-7-7-|
D|-x-x-x-x-x-x-x-x-|-x-x-x-x-x-x-x-x-|-x-x-x-x-x-x-x-x-|-x-x-x-x-x-x-x-x-|
A|-5-5-5-5-5-5-5-5-|-5-5-5-5-5-5-5-5-|-5-5-5-5-5-5-5-5-|-5-5-5-5-5-5-5-5-|
E|-----------------|-----------------|-----------------|-----------------|

Guitar 3
E|-----------------|-----------------|-----------------|-----------------|
B|-5---5-7-5-----5-|-----5-7-5-------|-5---5-7-5-----5-|-----5-7-5-------|
G|---7-------7-7---|-7-7-------7-7-7-|---7-------7-7---|-7-7-------7-7-7-|
D|-----------------|-----------------|-----------------|-----------------|
A|-----------------|-----------------|-----------------|-----------------|
E|-----------------|-----------------|-----------------|-----------------|

Guitar 1
E|-----------------|-----------------|-----------------|-----------------|
B|-----------------|-----------------|-----------------|-----------------|
G|-----------------|-----------------|-----------------|-----------------|
D|-4-4-4-4-4-4-4-4-|-4-4-4-4-4-4-4-0-|-----------------|-----------------|
A|-2-2-2-2-2-2-2-2-|-2-2-2-2-2-2-2-0-|-5-5-5-5-5-5-5-5-|-5-5-5-5-5-5-5-0-|
E|-----------------|-----------------|-3-3-3-3-3-3-3-3-|-3-3-3-3-3-3-3---|

Guitar 2
E|-----------------|-----------------|-----------------|-----------------|
B|-----------------|-----------------|-----------------|-----------------|
G|-4-4-4-4-4-4-4-4-|-6-6-6-6-7-7-7-7-|-7-7-7-7-7-7-7-7-|-6-6-6-6-7-7-7-7-|
D|-x-x-x-x-x-x-x-x-|-x-x-x-x-x-x-x-x-|-x-x-x-x-x-x-x-x-|-x-x-x-x-x-x-x-x-|
A|-2-2-2-2-2-2-2-2-|-4-4-4-4-5-5-5-5-|-5-5-5-5-5-5-5-5-|-4-4-4-4-5-5-5-5-|
E|-----------------|-----------------|-----------------|-----------------|

Guitar 1
E|-----------------|-----------------|-----------------|-----------------|
B|-----------------|-----------------|-----------------|-----------------|
G|-----------------|-----------------|-----------------|-----------------|
D|-4-4-4-4-4-4-4-4-|-4-4-4-4-4-4-4-4-|-----------------|-----------------|
A|-2-2-2-2-2-2-2-2-|-2-2-2-2-2-2-2-2-|-----------------|-----------------|
E|-----------------|-----------------|-----------------|-----------------|

Guitar 2
E|-----------------|-----------------|-----------------|-----------------|
B|-----------------|-----------------|-----------------|-----------------|
G|-4-4-4-4-4-4-4-4-|-6-6-6-6-7-7-7-7-|-----------------|-----------------|
D|-x-x-x-x-x-x-x-x-|-x-x-x-x-x-x-x-x-|-----------------|-----------------|
A|-2-2-2-2-2-2-2-2-|-4-4-4-4-5-5-5-5-|-------------5-5-|-0---------------|
E|-----------------|-----------------|-3-3-2-2-0-0-----|-----------------|


[Outro]

Guitar 1
E|-----------------|-----------------|-----------------|-----------------|
B|-----------------|-----------------|-----------------|-----------------|
G|-----------------|-----------------|-----------------|-----------------|
D|-7-7-7---------7-|---7-7-----------|-----------------|-----------------|
A|-5-5-5---------5-|---5-5-----------|-5-5-5---------5-|---5-5-----------|
E|---------------5-|---5-------------|-3-3-3---------3-|---3-3-----------|
. . . .

Guitar 2
E|-----------------|-----------------|-----------------|-----------------|
B|-5---5-7-5-----5-|-----5-7-5-------|-5---5-7-5-----5-|-----5-7-5-------|
G|---7-------7-7---|-7-7-------7-7-7-|---7-------7-7---|-7-7-------7-7-7-|
D|-----------------|-----------------|-----------------|-----------------|
A|-----------------|-----------------|-----------------|-----------------|
E|-----------------|-----------------|-----------------|-----------------|

Guitar 1
E|-----------------|-----------------|-----------------|-----------------|
B|-----------------|-----------------|-----------------|-----------------|
G|-----------------|-----------------|-----------------|-----------------|
D|-7-7-7---------7-|---7-7-----------|-----------------|-----------------|
A|-5-5-5---------5-|---5-5-----------|-5-5-5---------5-|---5-5-----------|
E|-----------------|-----------------|-3-3-3---------3-|---3-3-----------|
. . . .

Guitar 2
E|-----------------|-----------------|-----------------|-----3-----------|
B|-5---5-7-5-----5-|-----5-7-5-------|-5---5-7-5-----5-|-----3-----------|
G|---7-------7-7---|-7-7-------7-7-7-|---7-------7-7---|-7-7-0-----------|
D|-----------------|-----------------|-----------------|-----------------|
A|-----------------|-----------------|-----------------|-----------------|
E|-----------------|-----------------|-----------------|-----------------|



************************************

/ = SLIDE UP
\ = SLIDE DOWN
h = HAMMER ON
p = PULL OFF
. = PALM MUTE
+ = HARMONIC

************************************
Tunning: Standard (E A D G B e)
New Found Glory
My Friend's Over You
Sticks and Stones
submitted by: paramore_fans@yahoo.com

Chords used:

D - xx0232
G - 320033
Em - 022000
A - x02220
Bm - x24432
F#m - 244222

[Intro]

Guitar 1: D--G (x2)

Guitar 2:
e|-----------------------------------------------------------------|
B|-5---5h7-5-----5-----5h7p5-------5---5h7-5-----5-------7p5-------|
G|---7-------7-7---7-7-------7-7-7---7-------7-7---7-7-7-----7-7-7-|
D|-----------------------------------------------------------------|
A|-----------------------------------------------------------------|
E|-----------------------------------------------------------------|

e|-----------------------------------------------------------------|
B|-5---5h7-5-----5-----5h7p5-------5---5h7-5-----5-----8~----------|
G|---7-------7-7---7-7-------7-7-7---7-------7-7---7-7-7~----------|
D|-----------------------------------------------------5~----------|
A|-----------------------------------------------------------------|
E|-----------------------------------------------------------------|

or you can do the intro in this easier way

e|-0---0h2-0-----0-----0h2p0-------0---0h2-0-----0-------2p0-------|
B|---3-------3-3---3-3-------3-3-3---3-------3-3---3-3-3-----3-3-3-|
G|-----------------------------------------------------------------|
D|-----------------------------------------------------------------|
A|-----------------------------------------------------------------|
E|-----------------------------------------------------------------|

e|-0---0h2-0-----0-----0h2p0-------0---0h2-0-----0-----3~----------|
B|---3-------3-3---3-3-------3-3-3---3-------3-3---3-3-3~----------|
G|-----------------------------------------------------0~----------|
D|-----------------------------------------------------------------|
A|-----------------------------------------------------------------|
E|-----------------------------------------------------------------|


[Verse 1]

D
I'm drunk off your kiss
G
For another night in a row
D
This is becoming too routine for me
Em G
But I didn't mean to lead you on
D G
And it's alright to pretend that we still talk
D
It's just for show isn't it
Em G
It's my fault that it fell apart

Guitar 2: In part "Just for show isn't it, it's my fault that it fell apart"
e|-----------------------------------------------------------------------|
B|-5---5h7-5-----5-----5h7p5-------5---5h7-5-----5-----------------------|
G|---7-------7-7---7-7-------7-7-7---7-------7-7---7-7-7--9--9--9--9/11--|
D|--------------------------------------------------------x--x--x--x/-x--|
A|--------------------------------------------------------7--7--7--7/-9--|
E|-----------------------------------------------------------------------|

e|---------------------|
B|---------------------|
G|-12--12--12--1211----|
D|--x---x---x---x-x----|
A|-10--10--10--10-9----|
E|---------------------|


[Refrain]

Em G
Just maybe you need this
Em G A
And I didn't mean to lead you on


[Chorus]

D G
You were everything I wanted
D G
But I just can't finish what I started
Bm G
There's no room left here on my back
Bm
It was damaged long ago
G
Though you swear that you are true
F#m Em D A(Hold) D--G(Repeat Intro for guitar 2)
I'd still pick my friends over you
D--G
My friends over you!


[Verse 2]

D
Please tell me everything
G
That you think that I should know
D
About all the plans you made
Em G
When I was no where to be found
D G
And it's all right to forget that we still talk
D
It's just for fun isn't it
Em G
It's my fault that it fell apart

Guitar 2: In part "Just for fun isn't it, it's my fault that it fell apart"
e|-----------------------------------------------------------------------|
B|-5---5h7-5-----5-----5h7p5-------5---5h7-5-----5-----------------------|
G|---7-------7-7---7-7-------7-7-7---7-------7-7---7-7-7--9--9--9--9/11--|
D|--------------------------------------------------------x--x--x--x/-x--|
A|--------------------------------------------------------7--7--7--7/-9--|
E|-----------------------------------------------------------------------|

e|---------------------|
B|---------------------|
G|-12--12--12--1211----|
D|--x---x---x---x-x----|
A|-10--10--10--10-9----|
E|---------------------|


(Repeat Refrain and Chorus but don't repeat the intro)


[Interlude]

D--F#m--G--D--F#m--G--Bm--F#m--G--Bm--A--G (x4)

Guitar 2: At 4th time
e|--------------------|
B|-----------------2~-|
G|---------------2----|
D|-0--0h4--4~--4------|
A|--------------------|
E|--------------------|


[Refrain 2]

Em G Em G
Just maybe you need this you need this
Em G A
And I didn't mean to lead you on

(Repeat chorus twice)
(Repeat Intro)



************************************

| x Dead note
| h Hammer-on
| p Pull-off
| / Slide up
| ~ Vibrato

************************************
Song info
My Friends Over You
New Found Glory
2001
  • Rock
  • Pop Rock
  • Punk
Alternative tracks
Similar songs
Rise And Fall - The Offspring
Helena - My Chemical Romance
Tall Cool One - Robert Plant
Fly Away - Lenny Kravitz
Peacekeeper - Fleetwood Mac

Hi! Hope you enjoy backing track experience.
If you want to help us in the development of the project, feel free to donate!