How You Remind Me - Nickelback
00:00 / 00:00
Tabs and lyrics
Tunning: Drop D (D A D G B E)
Nickelback How you remind me.
Tabbed by dfivehorizons@hotmail.com.

How you remind me by Nickelback
Silver side up
Tabbed By David Molina Bravo dfivehorizons@hotmail.com

This tab is based on Greg´s tab (MigraneMan7@excite.com.)
but i made a few changes here and there to make it more accurate
if anyone can make contributions to this tab they´re welcome

Hear the CD for the strumming pattern

Drop D Tunning DADGBE

(Intro)
e--3---3---1---1--------------
B--3---6---1---4--------------
G--5---5---3---3--------------
D--5---3---3---1--------------
A--3---3---1---1--------------
D-----------------------------
never made it as a wise man...



e--3--3------------------1----
B--3----3--------8-------1----
G--5------5---6-----8--3------ 2x
D--5----------6--------3------
A-----------------------------
D-----------------------------
and this is how you remind me...

Third time

e--3--3-----------------------
B--3----3--------8------------
G--5------5---6-----8--3------
D--5----------6--------3--1---
A----------------------1--1---
D-------------------------1---
this is how you remind me of what i really am...


Chorus (Riff 1)
e-----------------------------
B-----------------------------
G--5---------3----------------
D--5----1----3----3-----------
A--3----1----1----3-----------
D--1----1---------3-----------
it's not like you to say sorry...

e-----------------------------
B-----------------------------
G--5---------3----------------
D--5----1----3----3-----------
A--3----1----1----3-----------
D-------1---------3-----------
i've been wrong, i've been down...

e-----------------------------
B-----------------------------
G--5---------3----------------
D--5----3----3----1-----------
A--3----3----1----1-----------
D--3----3----1----1-----------
yeah, yeah, yeah, no, no...

(2 verse)
e--3---3---1---1--------------
B--3---6---1---4--------------
G--5---5---3---3--------------
D--5---3---3---1--------------
A--3---3---1---1--------------
D-----------------------------
it's not like you didn't know that
i said i love you and i swear i still do
and it must have been so bad
cuz living with me must have damn near killed you

and this is how you remind me of what i really am
this is how you remind me of what i really am

Chorus

Quiet part:
(Intro)
e--3---3---1---1--------------
B--3---6---1---4--------------
G--5---5---3---3--------------
D--5---3---3---1--------------
A--3---3---1---1--------------
D-----------------------------
never made it as a wise man...

e-----------------------------
B-----------------------------
G--5---8---10-----------------
D--5---8---10-----------------
A--3---6---8------------------
D-----------------------------
and this is how you remind me...



e--3--3-----------------------
B--3----3--------8------------
G--5------5---6-----8--3------
D--5----------6--------3--1---
A----------------------1--1---
D-------------------------1---
this is how you remind me of what i really am...

Back to Chorus
:: Ultimate Guitar Archive ::
http://www.ultimate-guitar.com



Tunning: Drop D (D A D G B E)
[Intro/Verse]

(Never made it as a wise man......)
Clean Guitar

e|------------|
B|------------|
G|-5--5--3--3-|
D|-5--3--3--1-|
A|-3--3--1--1-|
E|----3-----1-|

When distorted comes in
e|-----------------|
B|-----------------|
G|-3-3-3-3-3-3-3-3-|
D|-3-3-3-3-1-1-1-1-|
A|-1-1-1-1-1-1-1-1-|
E|---------1-1-1-1-|
( P.M. )


[Chorus]

(Not like you, to say sorry.....)
Distorted Guitars

e|------------|
B|------------|
G|-5--3--3--5-|
D|-5--1--3--3-|
A|-3--1--1--3-|
E|----1-----3-|

(Yeah, Yeah, Yeah, No, No)

e|------------|
B|------------|
G|-5--5--3--3-|
D|-5--3--3--1-|
A|-3--3--1--1-|
E|----3-----1-|

Other part with no drums and stuff.

(Never made it as a wise man)
Clean Guitar

e|------------|
B|------------|
G|-5--5--3--3-|
D|-5--3--3--1-|
A|-3--3--1--1-|
E|----3-----1-|

(And this is how you remind me)

e|---------|
B|---------|
G|-5--5--3-|
D|-5--3--3-|
A|-3--3--1-|
E|----3----|

That is the whole song my homies. There is a few little picking parts and stuff but
it really doesn't matter if you wanna play the song. There may be a few octave variations
and shit but i assure you, this tab sounds awesome if you work it out.
Tunning: Drop D (D A D G B E)
Song: How You Remind Me
Band: Nickelback
From: Silver Side Up
By: Adam Urbz
Mail: pickboy87@cs.com
Tune: Dropped D (D,A,D,G,B,E)

Chords Used:
C5: x355xx Bb5: x133xx
F5: 3335xx Eb5: 1113xx

Verse One:
C5 F5
Never made it as a wise man
Bb5 Eb5
I couldn't cut it as a poor man stealing
C5 F5
Tired of living like a blind man
Bb5 Eb5
I'm sick of sight without a sense of feeling
C5 F5 Bb5
And this is how you remind me
C5 F5 Bb5 Eb5
This is how you remind me of what I really am
C5 F5 Bb5 Eb5
This is how you remind me of what I really am

Chorus:
C5 F5
It's not like you to say sorry
Bb5 Eb5
I want to swing on a different story
C5 F5
This time I'm mistaken
Bb5 Eb5
For having you, a heart worth breaking, And I've
C5 C5 F5 F5
Been wrong, I've been down
Bb5 Eb5
But you're the bottom of every bottle
C5 F5
You stuck words in my head
Bb5 Eb5
You screamed "Mom, we having fun yet?"
C5 F5 Bb5 Eb5
Yeah, yeah, yeah
C5 F5 Bb5 Eb5
Yeah, yeah, yeah

Verse Two:
C5 F5
It's not like you didn't know that
Bb5 Eb5
I said I love you and I swear I still do
C5 F5
And it must have been so bad
Bb5 Eb5
Cause leaving him must have damn near killed you
C5 F5 Bb5
And this is how you remind me
C5 F5 Bb5 Eb5
This is how you remind me of what I really am
C5 F5 Bb5 Eb5
This is how you remind me of what I really am



Bridge 1: C5 F5 Bb5 Eb5 (x2)

Bridge 2: (Strum each chord once)
C5 F5
Never made it as a wise man
Bb5 Eb5
I couldn't cut it as a poor man stealing
C5 F5 Bb5
And this is how you remind me
C5 F5 Bb5
And this is how you remind me
C5 F5 Bb5 Eb5
This is how you remind me of what I really am
C5 F5 Bb5 Eb5
This is how you remind me of what I really am



Are we having fun yet? (x3)
Tunning: Drop D (D A D G B E)
Nickelback
How You Remind Me

tabbed by Gamaliel Colon(inbredhatred@cs.com)



List of important stuff
Guitar 1- Clean electric
Guitar 2- Clean electric w/ leslie rotary cabinet
Guitar 3- Distorted electric
Guitar 4- Distorted electric w/ leslie rotary cabinet

Intro/Main Riff
gtr.1
E|----3-3-3----3-3-3----1-1-1----1-1---------|
B|----3-3-3----3-3-3----1-1-1----1-1---------|
G|-5--5-5-5-5--5-5-5-3--3-3-3-3--3-3-3/5-----|
D|-5--5-5-5-5--5-5-5-3--3-3-3-3--3-3-3/5-----|
A|-3--3-3-3-3--3-3-3-1--1-1-1-1--1-1-0-------|
D|----------3--3-3-3--------0-1--1-1---------|


Verse Fill 1
gtr.1
E|-3------6------3-----------|
B|-3------6------3-----------|
G|-5------8------5-----------|
D|-5------8------5-----------|
A|-3------6------3-----------|
D|-3------6------------------|
| |
| gtr.2 |
E|---3------1------3---------|
B|-----3------1------3-------|
G|-------5------3------5-----|
D|---------------------------|
A|---------------------------|
D|---------------------------|


Prechorus part 1
gtr.1 plays Main Riff

gtr.2
E|-3-------3-------1----------------------------------|
B|----------------------------------------------------|
G|-----5-------5-------3------------------------------|
D|----------------------------------------------------|
A|----------------------------------------------------|
D|----------------------------------------------------|


Prechorus fill 1
gtr.2 plays prechorus part 1 last time

gtr.3
E|---------------------|
B|---------------------|
G|---------------------|
D|-3-3-3-3-------------|
A|-1-1-1-1-1-1-1-1-----|
D|---------1-1-1-1-----|
. . . . . . . .


Prechorus part 2
gtr.3
E|-------------------------------------|
B|-------------------------------------|
G|-5-5-5-5---------3-3-3-3-------------|
D|-5-5-5-5-3-3-3-3-3-3-3-3-1-1-1-1-----|
A|-3-3-3-3-3-3-3-3-1-1-1-1-1-1-1-1-----|
D|---------3-3-3-3---------1-1-1-1-----|


Chorus part 1
gtr.3
E|-----------------------------------------------------------------------|
B|-----------------------------------------------------------------------|
G|-5-5---------------3-3-3-3---------5-5-5-5---------3-3-3-3-------------|
D|-3-3------1-1------3-3-3-3-3-3-3-3-5-5-5-5-1-1-1-1-3-3-3-3-3-3-3-3-----|
A|-3-3------1-1------1-1-1-1-3-3-3-3-3-3-3-3-1-1-1-1-1-1-1-1-3-3-3-3-----|
D|----------1-1--------------3-3-3-3---------1-1-1-1---------3-3-3-3-----|


Chorus part 2
gtr.3
E|--------------------------------------------|
B|--------------------------------------------|
G|-5-------------------3--3--3-3--------------|
D|-5---------1---------3--3--3-3-3---3--------|
A|-3---------1---------1--1--1-1-3---3--------|
D|-----------1---------------0-0-3---3--------|
| |
| gtr.4 |
E|---3---------1---------1--------3-----------|
B|---------3---------1---------1--------3-----|
G|------5---------3---------3--------5--------|
D|--------------------------------------------|
A|--------------------------------------------|
D|--------------------------------------------|


Verse Fill 2
gtr.3
E|----------------------|
B|----------------------|
G|-5--------------------|
D|-5--------------------|
A|-3--(3)/6---(6)/8-----|
D|----------------------|


Verse Fill 3
gtr.2
E|-3-------1-----|
B|-3-------1-----|
G|-5-------3-----|
D|-5-------3-----|
A|-3-------1-----|
D|---------------|



Interlude part 1
gtr.1 plays main riff

gtr.2 plays verse fill 3 with Leslie off


Interlude part 2
gtr.1
E|-3-------1-----1------3----6----8------|
B|-3-------1-----1------3----6----8------|
G|-5---5---3---3-3-3/5--5----8----10-----|
D|-5---5---3---3-3-3/5--5----8----10-----|
A|-3---3---1---1-1-0----3----6----8------|
D|-----3-------1-1------3----6----8------|


Interlude part 3
gtr.1
E|-3----6----8------|
B|-3----6----8------|
G|-5----8----10-----|
D|-5----8----10-----|
A|-3----6----8------|
D|-3----6----8------|


Prechorus Fill 2
E|-----------------------|
B|-----------------------|
G|-5-5-5-5---------3-----|
D|-5-5-5-5-3-3-3-3-3-----|
A|-3-3-3-3-3-3-3-3-1-----|
D|---------3-3-3-3-------|



Outro
gtrs.2 & 4
E|-----------6-----|
B|--6------6-------|
G|-----3-5---------|
D|-----------------|
A|-----------------|
E|-----------------|







Okay, here goes
Structure to song


Part gtr.1 gtr.2 gtr.3 gtr.4
Intro/1st Verse Main riffx2
Verse Fill 1x1 Verse Fill 1x1
Prechorus Main Riffx1 Verse Fill 1x1
Main Riffx1 Prechorus 1x1 Prechorus Fill 1x1
Prechorus 2x2
Chorus Chorus 1x1
Chorus 2x2 Chorus Part 2x2
2nd Verse Verse Fill 2x1
Verse Fill 3x1
Prechorus Prechorus 1x1
Prechorus 1x1 Prechorus Fill 1x1
Prechorus 2x2
Chorus Chorus 1x1
Chorus 2x2 Chorus Part 2x2
Interlude Main Riffx1
Interlude 1x1 Interlude 1x1
Interlude 2x1
Interlude 3x1
Prechorus Prechorus 1x1
Prechorus 1x1 Prechorus Fill 1x1
Prechorus 2x1
Prechorus Fill 2x1
Chorus Chorus 1x1
Chorus 2x4 Chorus Part 2x4
Outro Outro til end Outro til end
Tunning: Drop D (D A D G B E)
Tired of all the posers? Here's the closest I could get to the real thang!
Thanks to DA Guitar Dude for supplying the foundation for this one.

I've included the lyrics for the heck of it!

Dropped D tuning: D A D G B E

[Verse]

[clean guitar]

E|------------|
B|------------|
G|-5--5--3--3-|
D|-5--3--3--1-|
A|-3--3--1--1-|
D|----3-----1-|

Never made it as a wise man
I couldn't cut it as a poor man stealing
Tired of living like a blind man
I'm sick of sight without a sense of feeling

E|---3--------3--------1--------------|
B|-3---3----4---4----1---1------------|
G|-5-----5--5-----5--3-----3----------|
D|-5--------3--------3----------------|
A|-3--------3--------1----------------|
D|----------3-------------------------|

And this is how you remind me
This is how you remind me
Of what I really am

When distorted comes in
E|-----------------|
B|-----------------|
G|-3-3-3-3-3-3-3-3-|
D|-3-3-3-3-1-1-1-1-|
A|-1-1-1-1-1-1-1-1-|
D|---------1-1-1-1-|
( P.M. )

This is how you remind me
Of what I really am

[Chorus]

Distorted Guitars

E|------------|
B|------------|
G|-5--3--3--5-|
D|-5--1--3--3-|
A|-3--1--1--3-|
D|----1-----3-|

It's not like you to say sorry
I was waiting on a different story
This time I'm mistaken
for handing you a heart worth breaking

and I've [stop] been wrong [stop], i've been down,
to the bottom of every bottle
these five words in my head
scream "are we having fun yet?"


E|------------|
B|------------|
G|-5--5--3--3-|
D|-5--3--3--1-|
A|-3--3--1--1-|
D|----3-----1-|

yet, yet, yet, no, no
yet, yet, yet, no, no

[Verse 2]

[same as first with arpeggio]

it's not like you didn't know that
I said I love you and I swear I still do
And it must have been so bad
Cause living with me must have damn near killed you

And this is how, you remind me
Of what I really am
This is how, you remind me
Of what I really am

[back to Chorus]

yet, yet, yet, no, no
yet, yet, yet, no, no

[Break]

[back to clean guitar ]

[Like Intro]

Never made it as a wise man
I couldn't cut it as a poor man stealing

E|------------|
B|------------|
G|-5--8--10---|
D|-5--8--10---|
A|-3--6--8----|
D|-3--6--8----|

And this is how you remind me
This is how you remind me

[with verse arpeggio part]

This is how you remind me
Of what i really am
This is how you remind me
Of what i really am

[Chorus]

are we having fun yet [3x]
[five words in my head]
Tunning: Drop D (D A D G B E)
Song: How you remind me
Artist: Nickleback
Album: Silver side up

Author: James Devereux
Email: enigma195@hotmail.com

This is A correct tab. It's easy to play, don't be confused by the tab. Learn the chord
shapes first and then start stumming away.

RHYTHM: Listen to the song to hear the guitar rhythm, its loose and strummy in the
verse untill it gets to the picking parts and the chorus. The chorus is strong and
firm, don't forget to hit the dampened strings inbetween each chord for rhythm.

KEY
x - dampen the strings by just 'touching' the strings with your fretting hand

ADDITIONAL NOTES: Each section seperated by '|' counts as 1 bar (4/4 rhythm). See
bottom of Tab for chords and chord shapes.

DROP D TUNING: Tune the bottom low E string down to D

-----Intro/Verse----- (Clean Electric guitar)

-E----3------3----3--3-----3----x---x--|--1------1----1--1-----1---1--1---
-B----3------3----3--3-----3----x---x--|--1------1----1--1-----1---1--1---
-G----5------5----5--5-----5----x---x--|--3------3----3--3-----3---3--3--- X 2
-D----5------5----5--5-----5----x---x--|--3------3----3--3-----3---3--3---
-A----3-----------------3--------------|--1-----------------1-------------
-D----------------------3--------------|--------------------1-------------


-E-------3-----------------------------|---------3------------------------
-B-----------3------------8------------|--------------1-------------------
-G----5---------------8--------8-------|--------------------3 Let ring----
-D----5----------5----8-------------8--|----------------------------------
-A----3----------3----6-------------6--|---1------------------------------
-D-------------------------------------|----------------------------------


-E----3------3----3--3-----3----x---x--|------1-----------------1---1--1--
-B----3------3----3--3-----3----x---x--|----------1-------------1---1--1--
-G----5------5----5--5-----5----x---x--|--3-----------3---------3---3--3--
-D----5------5----5--5-----5----x---x--|--3---------------------3---3--3--
-A----3-----------------3--------------|--1----------------1--------------
-D----------------------3--------------|-------------------1--------------


Switch to distortion for these two Bars

-E----3------3----3--3-----3----x---x--|----------------------------------
-B----3------3----3--3-----3----x---x--|----------------------------------
-G----5------5----5--5-----5----x---x--|----------------------------------
-D----5------5----5--5-----5----x---x--|--3---3---3---3-------------------
-A----3-----------------3--------------|--1---1---1---1---1---1---1---1---
-D----------------------3--------------|------------------1---1---1---1---

Palm Mute

-----CHORUS----- (Heavily Distorted Electric Guitar)

-E-------------------------------------|----------------------------------
-B-------------------------------------|----------------------------------
-G----5-----5----x--x------------------|--3-----3----x--x----------------- X 2
-D----5-----5----x--x--1-----1----x--x-|--3-----3----x--x--3-----3---x--x-
-A----3-----3----x--x--1-----1----x--x-|--1-----1----x--x--3-----3---x--x-
-D---------------------1-----1----x--x-|-------------------3-----3---x--x-

Slight variation here, at each rest don't let the note ring through. You can
hear this in the song.

-E-------------------------------------|----------------------------------
-B-------------------------------------|----------------------------------
-G----5-----5---rest-------------------|--3-----3----x--x-----------------
-D----5-----5----------1-----1---------|--3-----3----x--x--3-----3---x--x-
-A----3-----3----------1-----1---rest--|--1-----1----x--x--3-----3---x--x-
-D---------------------1-----1---------|-------------------3-----3---x--x-

And.... Back to before

-E-------------------------------------|----------------------------------
-B-------------------------------------|----------------------------------
-G----5-----5----x--x------------------|--3-----3----x--x-----------------
-D----5-----5----x--x--1-----1----x--x-|--3-----3----x--x--3-----3---x--x-
-A----3-----3----x--x--1-----1----x--x-|--1-----1----x--x--3-----3---x--x-
-D---------------------1-----1----x--x-|-------------------3-----3---x--x-

-E--------3----------|------1----------|-------3----------|------1----------
-B-------------------|-----------------|------------------|-----------------
-G----5-------5------|--3-------3------|---5-------5------|--3-------3------
-D----5------------3-|--3------------1-|---5------------3-|--3------------1-
-A----3------------3-|--1------------1-|---3------------3-|--1------------1-
-D-----------------3-|---------------1-|----------------3-|---------------1-

For the last 4 bars, aim to produce a wall of sound. Let the last note in each
bar ring out for two beats.

Thats it!

Song Order

Verse,
Chorus,
Verse,
Chorus,
Verse,
Chorus


Chord shapes: Some of these may look hard. But in the actual song they aren't.

x - don't play string

Csus2 Csus2/F B(flat)Csus2 B(Flat) Csus2/F

-E----3-------3--------1----------------1-------------------
-B----3-------3--------1----------------1-------------------
-G----5-------5--------3----------------3-------------------
-D----5-------5--------3----------------3-------------------
-A----3-------3--------1----------------1-------------------
-D----x-------3--------x----------------1-------------------

E(flat) B(flat)6sus4 C5 E(flat)5 B(flat)5 F5

-E----x----------3------------x---x------------x--------x----------
-B----8----------1------------x---x------------x--------x----------
-G----8----------3------------5---x------------3--------x----------
-D----8----------x------------5---1------------3--------3----------
-A----6----------1------------3---1------------1--------3----------
-D----x----------x------------x---1------------x--------3----------

Fsus2 E(flat)sus2 E(flat)5 V2

-E----3----------1------------x---
-B----x----------x------------4---
-G----6----------3------------3---
-D----3----------1------------1---
-A----3----------1------------1---
-D----3----------1------------1---



CLOSING COMMENTS: Do not ever ever ever spend time writing out guitar tabs, its
probably one of the most boring, annoying things you can ever do. I was supposed
to be revising for GCSE's now I will... its more fun! Anyway, hope this tab is helpful
at my expense >:|
Tunning: Drop D (D A D G B E)
Hello, my dear UG fans :)
I am a huge fan of Nickelback's older music, especially from the albums Curb and The
but of course I listen to their more recent stuff as well. This

is the song How You Remind Me by Nickelback off of their superhit album Silver Side Up.
am absolutely sure this is correct, as I own a video of Nickelback

performing this song live, and because it is not a hard song to hear and tab out. I have
all of the lyrics under the tabs and aligned it as well as I

could. Please note that the tuning is in Drop-D, regardless of the fact that I was too
to change the string name to D. Please rate and post comments.

Good luck, and enjoy playing :)


Tuning:
Drop D


Verse:
Clean.

e|----3----3----x--x--3----3----x--x--1----1----x--x--1---1----x--x----|
B|----3----3----x--x--3----3----x--x--1----1----x--x--1---1----x--x----|
G|----5----5----x--x--5----5----x--x--3----3----x--x--3---3----x--x----|
D|----5----5----x--x--5----5----x--x--3----3----x--x--3---3----x--x----|
A|----3----3----x--x--3----3----x--x--1----1----x--x--1---1----x--x----|
E|----x----x----x--x--3----3----x--x--x----x----x--x--1---1----x--x----|
Never made it as a wise man. Couldn't cut it as a poor man stealing.

e|----3----3----x--x--3----3----x--x--1----1----x--x--1---1----x--x----|
B|----3----3----x--x--3----3----x--x--1----1----x--x--1---1----x--x----|
G|----5----5----x--x--5----5----x--x--3----3----x--x--3---3----x--x----|
D|----5----5----x--x--5----5----x--x--3----3----x--x--3---3----x--x----|
A|----3----3----x--x--3----3----x--x--1----1----x--x--1---1----x--x----|
E|----x----x----x--x--3----3----x--x--x----x----x--x--1---1----x--x----|
Tired of living like a blind man. Sick of sight without a sense of feeling,

e|----3----3----x--x--3----3----x--x--1----|
B|----3----3----x--x--3----3----x--x--1----|
G|----5----5----x--x--5----5----x--x--3----|
D|----5----5----x--x--5----5----x--x--3----|
A|----3----3----x--x--3----3----x--x--1----|
E|----x----x----x--x--3----3----x--x--x----|
and this is how, you remind me.....

e|----3----3----x--x--3----3----x--x--1----1----x--x--1---1----x--x----|
B|----3----3----x--x--3----3----x--x--1----1----x--x--1---1----x--x----|
G|----5----5----x--x--5----5----x--x--3----3----x--x--3---3----x--x----|
D|----5----5----x--x--5----5----x--x--3----3----x--x--3---3----x--x----|
A|----3----3----x--x--3----3----x--x--1----1----x--x--1---1----x--x----|
E|----x----x----x--x--3----3----x--x--x----x----x--x--1---1----x--x----|
This is how, you remind me of what I really am.

e|----3----3----x--x--3----3----x--x--1----1----1--1--1--1----|
B|----3----3----x--x--3----3----x--x--1----1----1--1--1--1----|
G|----5----5----x--x--5----5----x--x--3----3----3--3--3--3----|
D|----5----5----x--x--5----5----x--x--3----3----3--3--3--3----|
A|----3----3----x--x--3----3----x--x--1----1----1--1--1--1----|
E|----x----x----x--x--3----3----x--x--x----x----1--1--1--1----|
This is how, you remind me of what I really am.


Chorus:
Distortion on.

e|----3----3----x--x------------x--x--1----1----x--x------------x--x----|
B|----3----3----x--x------------x--x--1----1----x--x------------x--x----|
G|----5----5----x--x------------x--x--3----3----x--x------------x--x----|
D|----5----5----x--x--1----1----x--x--3----3----x--x--3----3----x--x----|
A|----3----3----x--x--1----1----x--x--1----1----x--x--3----3----x--x----|
E|----x----x----x--x--1----1----x--x--x----x----x--x--3----3----x--x----|
It's not like you, to say sorry. I was waiting on a different story.

e|----3----3----x--x------------x--x--1----1----x--x------------x--x----|
B|----3----3----x--x------------x--x--1----1----x--x------------x--x----|
G|----5----5----x--x------------x--x--3----3----x--x------------x--x----|
D|----5----5----x--x--1----1----x--x--3----3----x--x--3----3----x--x----|
A|----3----3----x--x--1----1----x--x--1----1----x--x--3----3----x--x----|
E|----x----x----x--x--1----1----x--x--x----x----x--x--3----3----x--x----|
This time I'm, mistaken. For handing you a heart worth breaking.

e|----3--3--x---------------x---------1----1----x--x------------x--x----|
B|----3--3--x---------------x---------1----1----x--x------------x--x----|
G|----5--5--x---------------x---------3----3----x--x------------x--x----|
D|----5--5--x---------1--1--x---------3----3----x--x--3----3----x--x----|
A|----3--3--x---------1--1--x---------1----1----x--x--3----3----x--x----|
E|----x--x--x---------1--1--x---------x----x----x--x--3----3----x--x----|
And I've been wrong. I've been down. Into the bottom of every bottle.

e|----3----3----x--x------------x--x--1----1----x--x------------x--x----|
B|----3----3----x--x------------x--x--1----1----x--x------------x--x----|
G|----5----5----x--x------------x--x--3----3----x--x------------x--x----|
D|----5----5----x--x--1----1----x--x--3----3----x--x--3----3----x--x----|
A|----3----3----x--x--1----1----x--x--1----1----x--x--3----3----x--x----|
E|----x----x----x--x--1----1----x--x--x----x----x--x--3----3----x--x----|
These five words in my head, scream "Are we having fun yet?"

e|----3----3----x--x------------x--x--1----1----x--x------------x--x----|
B|----3----3----x--x------------x--x--1----1----x--x------------x--x----|
G|----5----5----x--x------------x--x--3----3----x--x------------x--x----|
D|----5----5----x--x--1----1----x--x--3----3----x--x--3----3----x--x----|
A|----3----3----x--x--1----1----x--x--1----1----x--x--3----3----x--x----|
E|----x----x----x--x--1----1----x--x--x----x----x--x--3----3----x--x----|
Yet..... Yet..... Yet..... No, no.....

e|----3----3----x--x------------x--x--1----1----x--x------------x--x----|
B|----3----3----x--x------------x--x--1----1----x--x------------x--x----|
G|----5----5----x--x------------x--x--3----3----x--x------------x--x----|
D|----5----5----x--x--1----1----x--x--3----3----x--x--3----3----x--x----|
A|----3----3----x--x--1----1----x--x--1----1----x--x--3----3----x--x----|
E|----x----x----x--x--1----1----x--x--x----x----x--x--3----3----x--x----|
Yet..... Yet..... Yet..... No, no.....


Verse:
Clean.

e|----3----3----x--x--3----3----x--x--1----1----x--x--1---1----x--x----|
B|----3----3----x--x--3----3----x--x--1----1----x--x--1---1----x--x----|
G|----5----5----x--x--5----5----x--x--3----3----x--x--3---3----x--x----|
D|----5----5----x--x--5----5----x--x--3----3----x--x--3---3----x--x----|
A|----3----3----x--x--3----3----x--x--1----1----x--x--1---1----x--x----|
E|----x----x----x--x--3----3----x--x--x----x----x--x--1---1----x--x----|
It's not like you didn't know that. I said I love you and I swear I still do.

e|----3----3----x--x--3----3----x--x--1----1----x--x--1---1----x--x----|
B|----3----3----x--x--3----3----x--x--1----1----x--x--1---1----x--x----|
G|----5----5----x--x--5----5----x--x--3----3----x--x--3---3----x--x----|
D|----5----5----x--x--5----5----x--x--3----3----x--x--3---3----x--x----|
A|----3----3----x--x--3----3----x--x--1----1----x--x--1---1----x--x----|
E|----x----x----x--x--3----3----x--x--x----x----x--x--1---1----x--x----|
And it must've been so bad. 'Coz living with me must've damn near killed you,

e|----3----3----x--x--3----3----x--x--1----1----x--x--1---1----x--x----|
B|----3----3----x--x--3----3----x--x--1----1----x--x--1---1----x--x----|
G|----5----5----x--x--5----5----x--x--3----3----x--x--3---3----x--x----|
D|----5----5----x--x--5----5----x--x--3----3----x--x--3---3----x--x----|
A|----3----3----x--x--3----3----x--x--1----1----x--x--1---1----x--x----|
E|----x----x----x--x--3----3----x--x--x----x----x--x--1---1----x--x----|
This is how, you remind me of what I really am.

e|----3----3----x--x--3----3----x--x--1----1----1--1--1--1----|
B|----3----3----x--x--3----3----x--x--1----1----1--1--1--1----|
G|----5----5----x--x--5----5----x--x--3----3----3--3--3--3----|
D|----5----5----x--x--5----5----x--x--3----3----3--3--3--3----|
A|----3----3----x--x--3----3----x--x--1----1----1--1--1--1----|
E|----x----x----x--x--3----3----x--x--x----x----1--1--1--1----|
This is how, you remind me of what I really am.


Chorus:
Distortion on.

e|----3----3----x--x------------x--x--1----1----x--x------------x--x----|
B|----3----3----x--x------------x--x--1----1----x--x------------x--x----|
G|----5----5----x--x------------x--x--3----3----x--x------------x--x----|
D|----5----5----x--x--1----1----x--x--3----3----x--x--3----3----x--x----|
A|----3----3----x--x--1----1----x--x--1----1----x--x--3----3----x--x----|
E|----x----x----x--x--1----1----x--x--x----x----x--x--3----3----x--x----|
It's not like you, to say sorry. I was waiting on a different story.

e|----3----3----x--x------------x--x--1----1----x--x------------x--x----|
B|----3----3----x--x------------x--x--1----1----x--x------------x--x----|
G|----5----5----x--x------------x--x--3----3----x--x------------x--x----|
D|----5----5----x--x--1----1----x--x--3----3----x--x--3----3----x--x----|
A|----3----3----x--x--1----1----x--x--1----1----x--x--3----3----x--x----|
E|----x----x----x--x--1----1----x--x--x----x----x--x--3----3----x--x----|
This time I'm, mistaken. For handing you a heart worth breaking.

e|----3--3--x---------------x---------1----1----x--x------------x--x----|
B|----3--3--x---------------x---------1----1----x--x------------x--x----|
G|----5--5--x---------------x---------3----3----x--x------------x--x----|
D|----5--5--x---------1--1--x---------3----3----x--x--3----3----x--x----|
A|----3--3--x---------1--1--x---------1----1----x--x--3----3----x--x----|
E|----x--x--x---------1--1--x---------x----x----x--x--3----3----x--x----|
And I've been wrong. I've been down. Into the bottom of every bottle.

e|----3----3----x--x------------x--x--1----1----x--x------------x--x----|
B|----3----3----x--x------------x--x--1----1----x--x------------x--x----|
G|----5----5----x--x------------x--x--3----3----x--x------------x--x----|
D|----5----5----x--x--1----1----x--x--3----3----x--x--3----3----x--x----|
A|----3----3----x--x--1----1----x--x--1----1----x--x--3----3----x--x----|
E|----x----x----x--x--1----1----x--x--x----x----x--x--3----3----x--x----|
These five words in my head, scream "Are we having fun yet?"

e|----3----3----x--x------------x--x--1----1----x--x------------x--x----|
B|----3----3----x--x------------x--x--1----1----x--x------------x--x----|
G|----5----5----x--x------------x--x--3----3----x--x------------x--x----|
D|----5----5----x--x--1----1----x--x--3----3----x--x--3----3----x--x----|
A|----3----3----x--x--1----1----x--x--1----1----x--x--3----3----x--x----|
E|----x----x----x--x--1----1----x--x--x----x----x--x--3----3----x--x----|
Yet..... Yet..... Yet..... No, no.....

e|----3----3----x--x------------x--x--1----1----x--x------------x--x----|
B|----3----3----x--x------------x--x--1----1----x--x------------x--x----|
G|----5----5----x--x------------x--x--3----3----x--x------------x--x----|
D|----5----5----x--x--1----1----x--x--3----3----x--x--3----3----x--x----|
A|----3----3----x--x--1----1----x--x--1----1----x--x--3----3----x--x----|
E|----x----x----x--x--1----1----x--x--x----x----x--x--3----3----x--x----|
Yet..... Yet..... Yet..... No, no.....

e|----3----3----x--x------------x--x--1----1----x--x------------x--x----|
B|----3----3----x--x------------x--x--1----1----x--x------------x--x----|
G|----5----5----x--x------------x--x--3----3----x--x------------x--x----|
D|----5----5----x--x--1----1----x--x--3----3----x--x--3----3----x--x----|
A|----3----3----x--x--1----1----x--x--1----1----x--x--3----3----x--x----|
E|----x----x----x--x--1----1----x--x--x----x----x--x--3----3----x--x----|
Yet..... Yet..... Yet..... No, no.....

e|----3----3----x--x------------x--x--1----1----x--x------------x--x----|
B|----3----3----x--x------------x--x--1----1----x--x------------x--x----|
G|----5----5----x--x------------x--x--3----3----x--x------------x--x----|
D|----5----5----x--x--1----1----x--x--3----3----x--x--3----3----x--x----|
A|----3----3----x--x--1----1----x--x--1----1----x--x--3----3----x--x----|
E|----x----x----x--x--1----1----x--x--x----x----x--x--3----3----x--x----|
Yet..... Yet..... Yet..... No, no.....


Verse:
Clean.

e|----3~~--------3~~--------x--x--1~~--------1~~--------x--x----|
B|----3~~--------3~~--------x--x--1~~--------1~~--------x--x----|
G|----5~~--------5~~--------x--x--3~~--------3~~--------x--x----|
D|----5~~--------5~~--------x--x--3~~--------3~~--------x--x----|
A|----3~~--------3~~--------x--x--1~~--------1~~--------x--x----|
E|----x~~--------3~~--------x--x--1~~--------1~~--------x--x----|

e|----3~~--------3~~--------x--x--1~~--------1~~--------x--x----|
B|----3~~--------3~~--------x--x--1~~--------1~~--------x--x----|
G|----5~~--------5~~--------x--x--3~~--------3~~--------x--x----|
D|----5~~--------5~~--------x--x--3~~--------3~~--------x--x----|
A|----3~~--------3~~--------x--x--1~~--------1~~--------x--x----|
E|----x~~--------3~~--------x--x--1~~--------1~~--------x--x----|

e|----3~~--------3~~--------x--x--1~~--------1~~--------x--x----|
B|----3~~--------3~~--------x--x--1~~--------1~~--------x--x----|
G|----5~~--------5~~--------x--x--3~~--------3~~--------x--x----|
D|----5~~--------5~~--------x--x--3~~--------3~~--------x--x----|
A|----3~~--------3~~--------x--x--1~~--------1~~--------x--x----|
E|----x~~--------3~~--------x--x--1~~--------1~~--------x--x----|
Never made it as a wise man. Couldn't cut it as a poor man stealing,

e|----3~~--------6~~--------8~~-----|
B|----3~~--------6~~--------8~~-----|
G|----5~~--------8~~--------10~-----|
D|----5~~--------8~~--------10~-----|
A|----3~~--------6~~--------8~~-----|
E|----x~~--------6~~--------8~~-----|
And this is how, you remind me.....

e|----3~~--------6~~--------8~~-----|
B|----3~~--------6~~--------8~~-----|
G|----5~~--------8~~--------10~-----|
D|----5~~--------8~~--------10~-----|
A|----3~~--------6~~--------8~~-----|
E|----x~~--------6~~--------8~~-----|
This is how, you remind me.....

e|----3----3----x--x--3----3----x--x--1----1----x--x--1---1----x--x----|
B|----3----3----x--x--3----3----x--x--1----1----x--x--1---1----x--x----|
G|----5----5----x--x--5----5----x--x--3----3----x--x--3---3----x--x----|
D|----5----5----x--x--5----5----x--x--3----3----x--x--3---3----x--x----|
A|----3----3----x--x--3----3----x--x--1----1----x--x--1---1----x--x----|
E|----x----x----x--x--3----3----x--x--x----x----x--x--1---1----x--x----|
This is how, you remind me of what I really am.

e|----3----3----x--x--3----3----x--x--1----1----1--1--1--1----|
B|----3----3----x--x--3----3----x--x--1----1----1--1--1--1----|
G|----5----5----x--x--5----5----x--x--3----3----3--3--3--3----|
D|----5----5----x--x--5----5----x--x--3----3----3--3--3--3----|
A|----3----3----x--x--3----3----x--x--1----1----1--1--1--1----|
E|----x----x----x--x--3----3----x--x--x----x----1--1--1--1----|
This is how, YOU REMIND ME OF WHAT I REALLY AM.


Chorus:
Distortion on.

e|----3----3----x--x------------x--x--1----1----x--x------------x--x----|
B|----3----3----x--x------------x--x--1----1----x--x------------x--x----|
G|----5----5----x--x------------x--x--3----3----x--x------------x--x----|
D|----5----5----x--x--1----1----x--x--3----3----x--x--3----3----x--x----|
A|----3----3----x--x--1----1----x--x--1----1----x--x--3----3----x--x----|
E|----x----x----x--x--1----1----x--x--x----x----x--x--3----3----x--x----|
It's not like you, to say sorry. I was waiting on a different story.

e|----3----3----x--x------------x--x--1--x------------------------------|
B|----3----3----x--x------------x--x--1--x------------------------------|
G|----5----5----x--x------------x--x--3--x------------------------------|
D|----5----5----x--x--1----1----x--x--3--x------------------------------|
A|----3----3----x--x--1----1----x--x--1--x------------------------------|
E|----x----x----x--x--1----1----x--x--x--x------------------------------|
This time I'm, mistaken. FOR HANDING YOU A HEART WORTH BREAKING.

e|----3--3--x---------------x---------1----1----x--x------------x--x----|
B|----3--3--x---------------x---------1----1----x--x------------x--x----|
G|----5--5--x---------------x---------3----3----x--x------------x--x----|
D|----5--5--x---------1--1--x---------3----3----x--x--3----3----x--x----|
A|----3--3--x---------1--1--x---------1----1----x--x--3----3----x--x----|
E|----x--x--x---------1--1--x---------x----x----x--x--3----3----x--x----|
And I've been wrong. I've been down. Into the bottom of EVERY bottle.

e|----3----3----x--x------------x--x--1----1----x--x------------x--x----|
B|----3----3----x--x------------x--x--1----1----x--x------------x--x----|
G|----5----5----x--x------------x--x--3----3----x--x------------x--x----|
D|----5----5----x--x--1----1----x--x--3----3----x--x--3----3----x--x----|
A|----3----3----x--x--1----1----x--x--1----1----x--x--3----3----x--x----|
E|----x----x----x--x--1----1----x--x--x----x----x--x--3----3----x--x----|
These five words in my head, scream "ARE WE HAVING FUN YET?"

e|----3----3----x--x------------x--x--1----1----x--x------------x--x----|
B|----3----3----x--x------------x--x--1----1----x--x------------x--x----|
G|----5----5----x--x------------x--x--3----3----x--x------------x--x----|
D|----5----5----x--x--1----1----x--x--3----3----x--x--3----3----x--x----|
A|----3----3----x--x--1----1----x--x--1----1----x--x--3----3----x--x----|
E|----x----x----x--x--1----1----x--x--x----x----x--x--3----3----x--x----|
Yet..... Yet..... "Are we having fun yet?".....

e|----3----3----x--x------------x--x--1----1----x--x------------x--x----|
B|----3----3----x--x------------x--x--1----1----x--x------------x--x----|
G|----5----5----x--x------------x--x--3----3----x--x------------x--x----|
D|----5----5----x--x--1----1----x--x--3----3----x--x--3----3----x--x----|
A|----3----3----x--x--1----1----x--x--1----1----x--x--3----3----x--x----|
E|----x----x----x--x--1----1----x--x--x----x----x--x--3----3----x--x----|
Yet..... Yet..... "Are we having fun yet?".....

e|----3----3----x--x------------x--x--1----1----x--x------------x--x----|
B|----3----3----x--x------------x--x--1----1----x--x------------x--x----|
G|----5----5----x--x------------x--x--3----3----x--x------------x--x----|
D|----5----5----x--x--1----1----x--x--3----3----x--x--3----3----x--x----|
A|----3----3----x--x--1----1----x--x--1----1----x--x--3----3----x--x----|
E|----x----x----x--x--1----1----x--x--x----x----x--x--3----3----x--x----|
Yet..... Yet..... "Are we having fun yet?".....
(These five words, in my head.....)

e|----3----3----x--x------------x--x--1~~~~-----------------------------|
B|----3----3----x--x------------x--x--1~~~~-----------------------------|
G|----5----5----x--x------------x--x--3~~~~-----------------------------|
D|----5----5----x--x--1----1----x--x--3~~~~-----------------------------|
A|----3----3----x--x--1----1----x--x--1~~~~-----------------------------|
E|----x----x----x--x--1----1----x--x--x~~~~-----------------------------|
Yet..... Yet..... Yet..... No, no.....


And that's the song. Again, please rate, post comments, and enjoy playing! :)
Tunning: Drop D (D A D G B E)
Nickelback
How You Remind Me (Acoustic)

Posted by Scott Erlichman
scott@erlichman.biz

This is my first tab, but it sounds right on.


Verse A

C C/Bb A# A#/F
E|-x--x--x--x----1--1--1--1---------------------|
B|-x--x--x--x----1--1--1--1---------------------|
G|-5—-5--5--5----3--3--3--3---------------------|
D|-5—-5--5--5----3--3--3--3---------------------|
A|-7—-7--7--7----1--1--1--1---------------------|
E|-8--8--6--6----------1--1---------------------|

Verse A1

E|----------------------------------------------|
B|----------------------------------------------|
G|------5---------------------------------------|
D|----5--------8-------10-----------------------|
A|--3--------6-------8--------------------------|
E|---------4------/6----------------------------|

Verse A2

C C/Bb A# A#/F
E|-x--x--x--x----1--1--1--1---------------------|
B|-x--x--x--x----1--1--1--1---------------------|
G|-5—-5--5--5----3--3--3--3---------------------|
D|-5—-5--5--5----3--3--3--3---------------------|
A|-7—-7--7--7----1--1--1--1---------------------|
E|-8--8--6--6----------1------------------------|

Chorus A
C Eb Bb F
E|-x--x--x--x----x--x--1--1---------------------|
B|-5--5--x--x----3--3--1--1---------------------|
G|-5—-5--4--4----3--3--2--2---------------------|
D|-5—-5--3--3----3--3--3--3---------------------|
A|-3—-3--1--1----1--1--3--3---------------------|
E|-x--x--1--1----x--x--1--1---------------------|

Chorus A1
C Eb Bb
E|-x--x--x--x----x------------------------------|
B|-5--5--x--x----3------------------------------|
G|-5—-5--4--4----3------------------------------|
D|-5—-5--3--3----3------------------------------|
A|-3—-3--1--1----1------------------------------|
E|-x--x--1--1----x------------------------------|

Chorus B

C Eb Bb A#/F
E|-x--x--x--x----x--x--x--x---------------------|
B|-5--5--x--x----3--3--3--3---------------------|
G|-5—-5--4--4----3--3--3--3---------------------|
D|-5—-5--3--3----3--3--3--3---------------------|
A|-3—-3--1--1----1--1--1--1---------------------|
E|-x--x--1--1----x--x--1--1---------------------|

Chorus B1

E|----------------------------------------------|
B|----------------------------------------------|
G|------5-----------------3---------------------|
D|----5---5------5------3---3------3------------|
A|--3----------3---3--1----------1--------------|
E|-----------1-----------------1----------------|


Order to play each part

Verse A
Verse A
Verse A1
Verse A
Verse A
Chorus A
Chorus A
Chorus A
Chorus A
Chorus B
Chorus B
Verse A
Verse A
Verse A
Verse A
Chorus A
Chorus A
Chorus A
Chorus A
Chorus B1
Chorus B1
Verse A2
Verse A
Verse A1
Verse A1
Verse A
Verse A
Chorus A
Chorus A1
Chorus A
Chorus A
Chorus B
Chorus B
Chorus B
Chorus B
Song info
How You Remind Me
Nickelback
2001
  • Rock
  • Pop Rock
Alternative tracks
Similar songs
All You Zombies - The Hooters
Brick in the wall - Pink Floyd
Illegal Alien - Genesis
Hang Fire - The Rolling Stones

Hi! Hope you enjoy backing track experience.
If you want to help us in the development of the project, feel free to donate!