Dont Tell Me You Love Me - Night Ranger
00:00 / 00:00
Tabs and lyrics
Tunning: Standard (E A D G B e)
Song: Don't Tell Me You Love Me
Artist: Night Ranger
Tuning: Standard (EADGBE)
Effects: Delay
Tabbed By: Kevin Zmetra

*you must be able to reach the 23 fret & use a bar to play this song*

[Intro] 2x
e|--------0----------0----------0----------0-------|| [Riff A]
B|-----------0----------0----------0----------0----||
G|*--2/4--------4\2--------2/4--------4\2---------*||
D|*-----------------------------------------------*||
A|-------------------------------------------------||
E|-------------------------------------------------||

e|-----------------------| go derectly into
B|-----------------------| next section
G|-----------------------|
D|--4--4-4--4-4--4-4--4--|
A|--4--4-4--4-4--4-4--4--|
E|--2--2-2--2-2--2-2--2--|

3x
e|---------------------------------------------------------||
B|---------------------------------------------------------||
G|*-------------------------------------------------------*||
D|*--4-x-x-x-x--4--4-x-x-x-x--4--4-x-x-x-x--4--4-x-x-x-x--*||
A|---4-x-x-x-x--4--4-x-x-x-x--4--4-x-x-x-x--4--4-x-x-x-x---||
E|---2-x-x-x-x--2--2-x-x-x-x--2--2-x-x-x-x--2--2-x-x-x-x---||

play [Riff A] throughout intro

[Verse]
[----keybord-------------------------------------------|| 2x
e|-----------------------------------------------------------||
B|-----------------------------------------------------------||
G|*--2-----4--4--2--4--4--2-------------------------------*--||
D|*--2-----4--4--2--4--4--2--4--2--4--2--4--4--2--4--2--4-*--||
A|---0-----------------------4--2--4--2--4--4--2--4--2--4----||
E|---------------------------2--0--2--0--2--2--0--2--0--2----||

e|--------------------------------------------|
B|--------------------------------------------|
G|--7--9--7--6--4----------7--6--4------------|
D|--7--9--7--6--4-------7-----------7--6--4---|
A|--5--7--5--4--2---/5------------------------|
E|--------------------------------------------|

[Chorus]
e|---------------------------------------------------|
B|---------------------------------------------------|
G|-----7--9--6--7--------------7--9--6--7------------|
D|--4--7--9--6--7--7--9--5--4--7--9--6--7--7--9--5---|
A|--4--5--7--4--5--7--9--5--4--5--7--4--5--7--9--5---|
E|--2--------------5--7--3--2--------------5--7--3---|

[Riff A] 2x
e|--------0----------0----------0----------0-------||
B|-----------0----------0----------0----------0----||
G|*--2/4--------4\2--------2/4--------4\2---------*||
D|*-----------------------------------------------*||
A|-------------------------------------------------||
E|-------------------------------------------------||

[Verse]
[----keybord-------------------------------------------|| 2x
e|-----------------------------------------------------------||
B|-----------------------------------------------------------||
G|*--2-----4--4--2--4--4--2-------------------------------*--||
D|*--2-----4--4--2--4--4--2--4--2--4--2--4--4--2--4--2--4-*--||
A|---0-----------------------4--2--4--2--4--4--2--4--2--4----||
E|---------------------------2--0--2--0--2--2--0--2--0--2----||

e|--------------------------------------------|
B|--------------------------------------------|
G|--7--9--7--6--4----------7--6--4------------|
D|--7--9--7--6--4-------7-----------7--6--4---|
A|--5--7--5--4--2---/5------------------------|
E|--------------------------------------------|

[Chorus]
e|---------------------------------------------------|
B|---------------------------------------------------|
G|-----7--9--6--7--------------7--9--6--7------------|
D|--4--7--9--6--7--7--9--5--4--7--9--6--7--7--9--5---|
A|--4--5--7--4--5--7--9--5--4--5--7--4--5--7--9--5---|
E|--2--------------5--7--3--2--------------5--7--3---|

[Solo] (Chours chord progression)
~~~ ah
e|--------------------------------------------|
B|--------------------------------------------|
G|--6--4-----6---6p4-----6p4-----6p4-----6f\--|
D|--------7-----------7-------7-------7-------|
A|--------------------------------------------|
E|--------------------------------------------|

ah
e|---------------------------------------|
B|---------------------------------------|
G|-----4--6p4-----7b--2--4p2h4p2/1h2p1h2-|
D|--7----------7-------------------------|
A|---------------------------------------|
E|---------------------------------------|

e|-------------------------------------------------|
B|-------------------------------------------------|
G|--2h4p2h4p2--1h2p1h2---4--6p4\2--4p2--1--2p1-----|
D|----------------------------------------------4--|
A|-------------------------------------------------|
E|-------------------------------------------------|

e|----------------------------------------|
B|----------------------------------------|
G|----------------------------------------|
D|--4--6--4--6p4--3h4p3h4p3----------9/12-|
A|---------------------------4--2/8-------|
E|----------------------------------------|

e|---------------------------------------|
B|----------------------10--7h10p7-------|
G|--9--11------7/9--11-------------------|
D|---------12----------------------------|
A|---------------------------------------|
E|---------------------------------------|

* * *
e|--------7--9--7------10--10p9p8h11p10p9h12p11p10---|
B|--7/10-----------10--------------------------------|
G|---------------------------------------------------|
D|---------------------------------------------------|
A|---------------------------------------------------|
E|---------------------------------------------------|

~~~
e|--14--16--14--16--17--16--17/21----|
B|-----------------------------------|
G|-----------------------------------|
D|-----------------------------------|
A|-----------------------------------|
E|-----------------------------------|

e|--21p19------19--17#--16#--17#-----|
B|---------22------------------------|
G|-----------------------------------|
D|-----------------------------------|
A|-----------------------------------|
E|-----------------------------------|

/\/\/\/\/\(go crazy)
e|--19#--17#--16#--17#--16#--14/22----------|
B|------------------------------------------|
G|------------------------------------------|
D|------------------------------------------|
A|------------------------------------------|
E|------------------------------------------|

[--------------with delay--------------]
2x
e||--------------------------------------||
B||--7h10t14-7h10t14-7h10t14-7h10t14-----||
G||*----------------------------------*--||
D||*----------------------------------*--||
A||--------------------------------------||
E||--------------------------------------||
[--------------with delay---------------||

2x
e|------------------------------------||
B|--7h10t15-7h10t15-7h10t15-7h10t15---||
G|*----------------------------------*||
D|*----------------------------------*||
A|------------------------------------||
E|------------------------------------||

[--------------with delay--------------]
2x
e||------------------------------------||
B||--7h10t17-7h10t17-7h10t17-7h10t17---||
G||*----------------------------------*||
D||*----------------------------------*||
A||------------------------------------||
E||------------------------------------||

e|------------------------------------------------------------------|
B|-7h10t19-7h10t19-7h10t19-7h10t19-7h10t18-7h10t18-7h10t18-7h10t18--|
G|------------------------------------------------------------------|
D|------------------------------------------------------------------|
A|------------------------------------------------------------------|
E|------------------------------------------------------------------|

e|----------7--9--10--7--9--10--14--12--10------12--10--|
B|-------7----------------------------------14----------|
G|--6h7-------------------------------------------------|
D|------------------------------------------------------|
A|------------------------------------------------------|
E|------------------------------------------------------|

e|-------------------------17--14----------14------|
B|-14--12--15--14--12--------------17--14------17--|
G|---------------------14--------------------------|
D|-------------------------------------------------|
A|-------------------------------------------------|
E|-------------------------------------------------|

e|--9--8--7--10--9--8--9--8--7--5--7--9----|
B|-----------------------------------------|
G|-----------------------------------------|
D|-----------------------------------------|
A|-----------------------------------------|
E|-----------------------------------------|

e|-------------16--17--19--21--19--17------19--17----------|
B|-16--17--19--------------------------21----------21--19--|
G|---------------------------------------------------------|
D|---------------------------------------------------------|
A|---------------------------------------------------------|
E|---------------------------------------------------------|

e|--17------------------17/19--21p19\17------19--17-----------|
B|------21--17--19--21-------------------21----------21--19---|
G|------------------------------------------------------------|
D|------------------------------------------------------------|
A|------------------------------------------------------------|
E|------------------------------------------------------------|

~~~~
e|--17----------------------17--19/23--23--23--23------|
B|------21--19--17--19--21-----------------------------|
G|-----------------------------------------------------|
D|-----------------------------------------------------|
A|-----------------------------------------------------|
E|-----------------------------------------------------|

~~~~~~~
e|--------------17-------------------------|
B|--17--19--21------17--19--20--19---------|
G|-----------------------------------------|
D|-----------------------------------------|
A|-----------------------------------------|
E|-----------------------------------------|

[Bridge] (Keybord arranged for guitar)
7x
e|-------------------------------------------||
B|-------------------------------------------||
G|*--4--4--2--4--4--2--4--4--2--4--4--2-----*||
D|*--4--4--2--4--4--2--4--4--2--4--4--2-----*||
A|-------------------------------------------||
E|-------------------------------------------||

e|--------------------------|
B|--------------------------|
G|-----7--9--6--7-----------|
D|--4--7--9--6--7--7--9--5--|
A|--4--5--7--4--5--7--9--5--|
E|--2--------------5--7--3--|

e|---------------------------------------------------|
B|---------------------------------------------------|
G|-----7--9--6--7--------------7--9--6--7------------|
D|--4--7--9--6--7--7--9--5--4--7--9--6--7--7--9--5---|
A|--4--5--7--4--5--7--9--5--4--5--7--4--5--7--9--5---|
E|--2--------------5--7--3--2--------------5--7--3---|

[Outro Solo]
e|-----------------------------------------|
B|-----------------------------------------|
G|--12\--/6-6-6--6-6-6--6-6-6/7-7-7--7-7-7-|
D|-----------------------------------------|
A|-----------------------------------------|
E|-----------------------------------------|

e|-----------------------------------------|
B|--7-7-7\4-4-4--4-4-4--4-4-4/6-6-6--6-6-6-|
G|-----------------------------------------|
D|-----------------------------------------|
A|-----------------------------------------|
E|-----------------------------------------|

e|-------------------------------------------------|
B|--6/7-7-7--7-7-7-7\6-6-6--6-6-6-6-7-7-7-6-7-7-7--|
G|-------------------------------------------------|
D|-------------------------------------------------|
A|-------------------------------------------------|
E|-------------------------------------------------|

~~~~
e|--/17--19--21----------------------------------|
B|---------------19---19--17---------------------|
G|----------------------------19--16--19p16h19---|
D|-----------------------------------------------|
A|-----------------------------------------------|
E|-----------------------------------------------|

~~~
e|--19p17----------------22--20------20--22-22-22b-|
B|---------20--19--17------------23----------------|
G|-------------------------------------------------|
D|-------------------------------------------------|
A|-------------------------------------------------|
E|-------------------------------------------------|

e|--r22--17h19p17--19f--r19--17h19p17--19--19p17--14--15--17--|
B|------------------------------------------------------------|
G|------------------------------------------------------------|
D|------------------------------------------------------------|
A|------------------------------------------------------------|
E|------------------------------------------------------------|

these next two lines are plaied together
dive once-> \/ \/ \/ \/ \/
e| |--14\--14--\--14--\--14--\--14--\--14----| |
B| |-----------------------------------------| |
G| |-----------------------------------------| |
D| |-----------------------------------------| |
A| |-----------------------------------------| |
E| |-----------------------------------------| |
| |
e| |-----------------------------------------| |
B| |-----------------------------------------| |
G| |-----------------------------------------| |
D| |--4---4--4----4--4---4--4----4--4---4----| |
A| |--4---4--4----4--4---4--4----4--4---4----| |
E| |--2---2--2----2--2---2--2----2--2---2----| |

This song is awsome! Because I'm only 14 I can't quite play it
but I worked at least 8 hours on it and I'm 95% sure its correct.
If you have any questions, you can e-mail me @ freezing_point01@hotmail.com
Thanks, & have fun.

************************************

| / Slide up
| \ Slide down
| * pick in series of hamerons & pulloffs
| x Dead note
| p Pull-off
| ~ Vibrato
| h Hammer-on
| b Bend
| t Tapping
| r Release
| > Accented note
| # Very fast repeated picking
| /\ (above the tab) -wammy bar
| f Full bend

************************************
Song info
Dont Tell Me You Love Me
Night Ranger
2001
  • Rock
  • Hard Rock
Alternative tracks
Similar songs
Be My Lover - Alice Cooper
Celebration Day - Led Zeppelin
Time Machine - Joe satriani
I Dont Wanna Stop - Ozzy Osbourne
Blackbird - Alter Bridge

Hi! Hope you enjoy backing track experience.
If you want to help us in the development of the project, feel free to donate!