All Apologies - Nirvana
00:00 / 00:00
Tabs and lyrics
Tunning: Standard (E A D G B e)
Nirvana:
All Apologies - In Utero


TUNING: Low/High Db Ab Db Gb Bb Eb

Eb ----------------------|----------------------|----------------------|-
Bb ----------------------|----------------------|----------------------|-
Gb ----------------------|----------------------|----------------------|-
Db ----------------------|----------12-12-9-10--|----------------------|-
Ab ---9-10-9-12-12-9-10--|---9-10-9-------------|---9-10-9-12-12-9-10--|-
Db -0--------------------|-0--------------------|-0--------------------|-


Eb ---------------------|-
Bb ---------------------|-
Gb ----------11-11-9----|-
Db ------------------12-|-
Ab ---9-10-9------------|-
Db -0-------------------|-

That's the main riff.. Then the Chorus (According to Billy):

Eb ----------------------------------------|-
Bb ----------------------------------------|-
Gb ----------------------------------------|-
Db -5-5-5--0-5-5-5--0-5-5-5--0-5-5-5--0--7-|-
Ab -5-5-5--0-5-5-5--0-5-5-5--0-5-5-5--0--7-|-
Db -5-5-5--0-5-5-5--0-5-5-5--0-5-5-5--0--7-|-

*****Then the Chorus (According to Pete)

Eb ----------------------------------------|-
Bb ----------------------------------------|-
Gb --------------------------------------2-|-
Db -5-5-5--0-5-5-5--0-5-5-5--0-5-5-5--0--2-|-
Ab -5-5-5--0-5-5-5--0-5-5-5--0-5-5-5--0--0-|-
Db -5-5-5--0-5-5-5--0-5-5-5--0-5-5-5--0--0-|-

In the sun ... Married, burried ....
********************

Verse 1:
What else should I be
All apologies
What else should I say
Everyone is gay
What else could I write
I don't have the right
What else should I be
All apologies

In the sun
In the sun I feed as one
In the sun
In the sun

married
buried

Verse 2:
I wish I was like you
Easily amused
Find my nest of salt
Everything is my fault
I'll take all the blame
Aqur scafoam shame
Sunburn with freezeburn
Choking on the ashes of her enemy

Ending:

Oh no is all we are (?)
All in all we all are



---------------------------------------------------------------


>1/2 step down, dropped D tuning
>
>Eb|----------------------------------------------------------
>Bb|----------------------------------------------------------
>Gb|----------------------------------------------------------
>Db|-------------------------------------------12--12--10--9--
>Ab|-----9--10--9--12--12--10--9-----9--10--9-----------------
>Db|--0---------------------------0---------------------------
>
>
>Eb|----------------------------------------------------------
>Bb|----------------------------------------------------------
>Gb|-------------------------------------------11--11--9------
>Db|------------------------------------------------------12--
>Ab|-----9--10--9--12--12--10--9-----9--10--9-----------------
>Db|--0---------------------------0---------------------------


All Apologies by Nirvana
--------------------------
(Normal tuning)

*
#
*
#
*
What else should I be
*
All apologies
*
What else should I say
*
Everyone is gay
*
What else could I write
*
I don't have the right
*
What else could I be
%
All apologies

F#
In the sun
In the sun I feel as one
In the sun
In the sun
G#sus4
I'm married
buried

*
I wish I was like you
#
Easily amused
*
Find my nest of salt
*
Everything is my fault
* $
I'll take all the blame
*
Aqua seafoam shame
* $
Sunburn with freezerburn
%(almost)
Choking on the ashes of her enemy

(Chorus)

*
#
All in all is all we are * # * # * # etc.

| | | | | | | |
* |----------------------------------|-----------------------------------|
|----------------------------------|-----------------------------------|
|----------------------------------|-----------------/6---6---4---3----|
|------3---4---3--/6---6---4---3---|------3---4---3--------------------|
|--4-------------------------------|--4--------------------------------|
|----------------------------------|-----------------------------------|

| | | | | | | |
# |----------------------------------|-----------------------------------|
|----------------------------------|-----------------/6---6---4---2----|
|----------------------------------|-----------------------------------|
|------3---4---3--/6---6---4---3---|------3---4---3--------------------|
|--4-------------------------------|--4--------------------------------|
|----------------------------------|-----------------------------------|

| | | | | | | |
% |----------------------------------|-----------------------------------|
|----------------------------------|-------------------/6---6----------|
|----------------------------------|-----------------------------------|
|------3---4---3--/6---6---4---3---|------3---4---3--------------------|
|--4-------------------------------|--4--------------------------------|
|----------------------------------|-----------------------------------|


|-----|-----|-----|-----|
|-----|-----|-----|-----| Play this the last time
|-----|-----|-----|-----|
$ Cello bit: |--9--|--6--|--9--|--11-| *2 |--9--|--6--|--3--|-----|
|-----|-----|-----|-----| |-----|-----|-----|--4--|
|-----|-----|-----|-----|
>>> >>> >>> >>> Volume Swells. Turn volume knob off
hammer on note and turn volume on,
repeat with every note. Use distortion.

Tunning: Standard (E A D G B e)
-----------------------------------------------------------------------------
All Apologies - Nirvana - UPINY
-----------------------------------------------------------------------------
Tabbed by:skatersic666
Email:totalrock2003@yahoo.com

Tuning:1/2 step then drop D (Db,Ab,Db,Gb,Bb,eb) though it may just be 1/2 step down
on Unplugged In NY
Chords Needed:
OPEN POWER
G| 320003 Or 555xxx OR 355xxx
A| x02220


(YOU COULD PICK THE OPEN STRING 'Db' WHILE PICKING THE 9's AND 12's BUT ON
'UNPLUGGED IN NEW YORK' KURT DOES THE OPEN STRING THING AND PAT SMEAR DOES THE RIFF ABOVE.)



-----------------------------------------------------------------------------
THE TAB
-----------------------------------------------------------------------------
Ok now for the songs itself:
(Listen to the CD or watch the recording of Unplugged to find out the timing)


[Intro]

eb|-------------------------------|----------------------------------|
Bb|-------------------------------|----------------------------------|
Gb|-------------------------------|----------------------------------|
Db|-------------------------------|--------------10/12--12--10--9----|
Ab|-9--9--10--9--10/12--12--10--9-|-9--9--10--9----------------------|
Db|-------------------------------|----------------------------------|

eb|-------------------------------|----------------------------------|
Bb|-------------------------------|----------------------------------|
Gb|-------------------------------|---------------11--11--9----------|
Db|-------------------------------|--------------------------12------|
Ab|-9--9--10--9--10/12--12--10--9-|-9--9--10--9----------------------|
Db|-------------------------------|----------------------------------|

eb|-------------------------------|----------------------------------|
Bb|-------------------------------|----------------------------------|
Gb|-------------------------------|----------------------------------|
Db|-------------------------------|--------------10/12--12--10--9----|
Ab|-9--9--10--9--10/12--12--10--9-|-9--9--10--9----------------------|
Db|-------------------------------|----------------------------------|

eb|-------------------------------|----------------------------------|
Bb|-------------------------------|----------------------------------|
Gb|-------------------------------|---------------11--11--9----------|
Db|-------------------------------|--------------------------12------|
Ab|-9--9--10--9--10/12--12--10--9-|-9--9--10--9----------------------|
Db|-------------------------------|----------------------------------|


[VERSE 1]

(Lyric/tab timing might be ever so slightly out.)

What else should i be?
eb|-------------------------------|----------------------------------|
Bb|-------------------------------|----------------------------------|
Gb|-------------------------------|----------------------------------|
Db|-------------------------------|--------------10/12--12--10--9----|
Ab|-9--9--10--9--10/12--12--10--9-|-9--9--10--9----------------------|
Db|-------------------------------|----------------------------------|

All______ Apologies___
eb|-------------------------------|----------------------------------|
Bb|-------------------------------|----------------------------------|
Gb|-------------------------------|---------------11--11--9----------|
Db|-------------------------------|--------------------------12------|
Ab|-9--9--10--9--10/12--12--10--9-|-9--9--10--9----------------------|
Db|-------------------------------|----------------------------------|

What else should I say?
eb|-------------------------------|----------------------------------|
Bb|-------------------------------|----------------------------------|
Gb|-------------------------------|----------------------------------|
Db|-------------------------------|--------------10/12--12--10--9----|
Ab|-9--9--10--9--10/12--12--10--9-|-9--9--10--9----------------------|
Db|-------------------------------|----------------------------------|

Everyone_ is gay__
eb|-------------------------------|----------------------------------|
Bb|-------------------------------|----------------------------------|
Gb|-------------------------------|---------------11--11--9----------|
Db|-------------------------------|--------------------------12------|
Ab|-9--9--10--9--10/12--12--10--9-|-9--9--10--9----------------------|
Db|-------------------------------|----------------------------------|

What else should I write?
eb|-------------------------------|----------------------------------|
Bb|-------------------------------|----------------------------------|
Gb|-------------------------------|----------------------------------|
Db|-------------------------------|--------------10/12--12--10--9----|
Ab|-9--9--10--9--10/12--12--10--9-|-9--9--10--9----------------------|
Db|-------------------------------|----------------------------------|

I don't__ have the right____
eb|-------------------------------|----------------------------------|
Bb|-------------------------------|----------------------------------|
Gb|-------------------------------|---------------11--11--9----------|
Db|-------------------------------|--------------------------12------|
Ab|-9--9--10--9--10/12--12--10--9-|-9--9--10--9----------------------|
Db|-------------------------------|----------------------------------|

What else should I be?
eb|-------------------------------|----------------------------------|
Bb|-------------------------------|----------------------------------|
Gb|-------------------------------|----------------------------------|
Db|-------------------------------|--------------10/12--12--10--9----|
Ab|-9--9--10--9--10/12--12--10--9-|-9--9--10--9----------------------|
Db|-------------------------------|----------------------------------|

A__l__l______ Apo__log__ies_______
eb|-------------------------------|--------------------------------------|
Bb|-------------------------------|--------------------------------------|
Gb|-------------------------------|---------------11--11--9--------------|
Db|-------------------------------|--------------------------12--5-5-5-5-|
Ab|-9--9--10--9--10/12--12--10--9-|-9--9--10--9------------------5-5-5-5-|
Db|-------------------------------|------------------------------5-5-5-5-|


[CHORUS]

(If your guitar is in 1/2 step down tuing use chord 355xxx for chorus:

G
In the sun___ in the sun I feel as one
eb|--------------------------------------------------------------|-
Bb|--------------------------------------------------------------|-
Gb|--------------------------------------------------------------|-
Db|-5-5-5-x--5-5-5-5--------5-5-5-x--5-5-5-5--5-5-5--5-5-5-5-----|-
Ab|-5-5-5-x--5-5-5-5--------5-5-5-x--5-5-5-5--5-5-5--5-5-5-5-----|-
Db|-5-5-5-x--5-5-5-5--------5-5-5-x--5-5-5-5--5-5-5--5-5-5-5-----|-

In the sun_____, In the sun__________
eb|--------------------------------------------------------------|-
Bb|--------------------------------------------------------------|-
Gb|--------------------------------------------------------------|-
Db|-5-5-5---5-5-5-5--------5-5-5---5-5-5-5----5-5--5-5-5-5-------|-
Ab|-5-5-5---5-5-5-5--------5-5-5---5-5-5-5----5-5--5-5-5-5-------|-
Db|-5-5-5---5-5-5-5--------5-5-5---5-5-5-5----5-5--5-5-5-5-------|-


[BRIDGE]

(For this you have to get the pauses right, single note bits might be wrong
but i tried to get them accurate, if in doubt just pick random high strings
A
Married___ Buried___
eb|-0---------------------|-0--------------------------|-
Bb|-2----2-------2-----2--|-2---2---2------------------|-
Gb|-2----2-------2-----2--|-2---2----------------------|-
Db|-2---------0-----------|-2----------2----2----------|-
Ab|-0---------0------0----|-0---------------0---0----0-|-
Eb|-----------------------|----------------------------|-


[VERSE 1]

(Lyric/tab timing might not be in sync.)

I wish I was like you
eb|-------------------------------|----------------------------------|
Bb|-------------------------------|----------------------------------|
Gb|-------------------------------|----------------------------------|
Db|-------------------------------|--------------10/12--12--10--9----|
Ab|-9--9--10--9--10/12--12--10--9-|-9--9--10--9----------------------|
Db|-------------------------------|----------------------------------|

E__asily__ amused_______
eb|-------------------------------|----------------------------------|
Bb|-------------------------------|----------------------------------|
Gb|-------------------------------|---------------11--11--9----------|
Db|-------------------------------|--------------------------12------|
Ab|-9--9--10--9--10/12--12--10--9-|-9--9--10--9----------------------|
Db|-------------------------------|----------------------------------|

Find my nest of salt
eb|-------------------------------|----------------------------------|
Bb|-------------------------------|----------------------------------|
Gb|-------------------------------|----------------------------------|
Db|-------------------------------|--------------10/12--12--10--9----|
Ab|-9--9--10--9--10/12--12--10--9-|-9--9--10--9----------------------|
Db|-------------------------------|----------------------------------|

Everythings_ my falut__
eb|-------------------------------|----------------------------------|
Bb|-------------------------------|----------------------------------|
Gb|-------------------------------|---------------11--11--9----------|
Db|-------------------------------|--------------------------12------|
Ab|-9--9--10--9--10/12--12--10--9-|-9--9--10--9----------------------|
Db|-------------------------------|----------------------------------|

I'll take all the blame
eb|-------------------------------|----------------------------------|
Bb|-------------------------------|----------------------------------|
Gb|-------------------------------|----------------------------------|
Db|-------------------------------|--------------10/12--12--10--9----|
Ab|-9--9--10--9--10/12--12--10--9-|-9--9--10--9----------------------|
Db|-------------------------------|----------------------------------|

Aqua__ seafoam__ shame___
eb|-------------------------------|----------------------------------|
Bb|-------------------------------|----------------------------------|
Gb|-------------------------------|---------------11--11--9----------|
Db|-------------------------------|--------------------------12------|
Ab|-9--9--10--9--10/12--12--10--9-|-9--9--10--9----------------------|
Db|-------------------------------|----------------------------------|

Sunburn_ the freezer burn_
eb|-------------------------------|----------------------------------|
Bb|-------------------------------|----------------------------------|
Gb|-------------------------------|----------------------------------|
Db|-------------------------------|--------------10/12--12--10--9----|
Ab|-9--9--10--9--10/12--12--10--9-|-9--9--10--9----------------------|
Db|-------------------------------|----------------------------------|

Cho___king on the a_shes of her enemies______
eb|-------------------------------|--------------------------------------|
Bb|-------------------------------|--------------------------------------|
Gb|-------------------------------|---------------11--11--9--------------|
Db|-------------------------------|--------------------------12----------|
Ab|-9--9--10--9--10/12--12--10--9-|-9--9--10--9--------------------------|
Db|-------------------------------|--------------------------------------|


[CHORUS]

(for this either use 555xxx Or 355xxx:

G
In the sun___ in the sun I feel as one
eb|--------------------------------------------------------------|-
Bb|--------------------------------------------------------------|-
Gb|--------------------------------------------------------------|-
Db|-5-5-5-x--5-5-5-5--------5-5-5-x--5-5-5-5--5-5-5--5-5-5-5-----|-
Ab|-5-5-5-x--5-5-5-5--------5-5-5-x--5-5-5-5--5-5-5--5-5-5-5-----|-
Db|-5-5-5-x--5-5-5-5--------5-5-5-x--5-5-5-5--5-5-5--5-5-5-5-----|-

In the sun_____, In the sun__________
eb|--------------------------------------------------------------|-
Bb|--------------------------------------------------------------|-
Gb|--------------------------------------------------------------|-
Db|-5-5-5---5-5-5-5--------5-5-5---5-5-5-5----5-5--5-5-5-5-------|-
Ab|-5-5-5---5-5-5-5--------5-5-5---5-5-5-5----5-5--5-5-5-5-------|-
Db|-5-5-5---5-5-5-5--------5-5-5---5-5-5-5----5-5--5-5-5-5-------|-


[BRIDGE]

(For this you have to get the pauses right, single note bits might be wrong
but i tried to get them accurate, if in doubt just pick random high strings

A
Married___ Buried___ Married__
eb|-0---------------------------|-0---------------------0--------------|-
Bb|-2-------------2------------2|-2--2----2-------------2--------------|-
Gb|-2----2----2---2----2-------2|-2--2----2-------2-----2---------2--2-|-
Db|-2-----------0------2-2---2--|-2------------2--2-----2-------2----2-|-
Ab|-0------0---------------0----|-0----------0----------0--0--0--------|-
Eb|-----------------------------|--------------------------------------|-

Buried
eb|-0---------------0--0-0-0---0-0-0---0---0---0-----------|-
Bb|-2----2-----2----2--2-2-2---2-2-2---2---2---2-----------|-
Gb|-2----2---2-2----2--2-2-2---2-2-2---2---2---2-----------|-
Db|-2--------2------2--2-2-2---2-2-2---2---2---2-----------|-
Ab|-0---------------0--0-0-0---0-0-0---0---0---0-----------|-
Eb|--------------------------------------------------------|-


[OUTRO]

eb|-------------------------------|----------------------------------|
Bb|-------------------------------|----------------------------------|
Gb|-------------------------------|----------------------------------|
Db|-------------------------------|--------------10/12--12--10--9----|
Ab|-9--9--10--9--10/12--12--10--9-|-9--9--10--9----------------------|
Db|-------------------------------|----------------------------------|

eb|-------------------------------|----------------------------------|
Bb|-------------------------------|----------------------------------|
Gb|-------------------------------|---------------11--11--9----------|
Db|-------------------------------|--------------------------12------|
Ab|-9--9--10--9--10/12--12--10--9-|-9--9--10--9----------------------|
Db|-------------------------------|----------------------------------|

All in all is all we all are
eb|-------------------------------|----------------------------------|
Bb|-------------------------------|----------------------------------|
Gb|-------------------------------|----------------------------------|
Db|-------------------------------|--------------10/12--12--10--9----|
Ab|-9--9--10--9--10/12--12--10--9-|-9--9--10--9----------------------|
Db|-------------------------------|----------------------------------|
All in all is all we all are
eb|-------------------------------|----------------------------------|
Bb|-------------------------------|----------------------------------|
Gb|-------------------------------|---------------11--11--9----------|
Db|-------------------------------|--------------------------12------|
Ab|-9--9--10--9--10/12--12--10--9-|-9--9--10--9----------------------|
Db|-------------------------------|----------------------------------|


All in all is all we all are
eb|-------------------------------|----------------------------------|
Bb|-------------------------------|----------------------------------|
Gb|-------------------------------|----------------------------------|
Db|-------------------------------|--------------10/12--12--10--9----|
Ab|-9--9--10--9--10/12--12--10--9-|-9--9--10--9----------------------|
Db|-------------------------------|----------------------------------|
All in all is all we all are
eb|-------------------------------|----------------------------------|
Bb|-------------------------------|----------------------------------|
Gb|-------------------------------|---------------11--11--9----------|
Db|-------------------------------|--------------------------12------|
Ab|-9--9--10--9--10/12--12--10--9-|-9--9--10--9----------------------|
Db|-------------------------------|----------------------------------|

All in all is all we all are
eb|-------------------------------|----------------------------------|
Bb|-------------------------------|----------------------------------|
Gb|-------------------------------|----------------------------------|
Db|-------------------------------|--------------10/12--12--10--9----|
Ab|-9--9--10--9--10/12--12--10--9-|-9--9--10--9----------------------|
Db|-------------------------------|----------------------------------|
All in all is all we all are
eb|-------------------------------|----------------------------------|
Bb|-------------------------------|----------------------------------|
Gb|-------------------------------|---------------11--11--9----------|
Db|-------------------------------|--------------------------12------|
Ab|-9--9--10--9--10/12--12--10--9-|-9--9--10--9----------------------|
Db|-------------------------------|----------------------------------|

All in all is all we all are
eb|------------------------------------|
Bb|------------------------------------|
Gb|------------------------------------|
Db|------------------------------------|
Ab|-9-------9----9----------9--9--9----|
Db|-0---0---0----0---0---0--0-----0----|

All in all is all we all are All in all is all we all are
eb|-------------------------------|-------------------------------|
Bb|-------------------------------|-------------------------------|
Gb|-------------------------------|-------------------------------|
Db|-------------------------------|-------------------------------|
Ab|-9-----9-------9-----9-------9-|-------9-----9-9-9-9--9--------|
Db|-0--0-----0--0----0-----0--0---|-0--0-----0-----------0--0-----|

All in all is all we all are All in all is all we all are
eb|-------------------------------|-------------------------------|
Bb|-------------------------------|-------------------------------|
Gb|-------------------------------|-------------------------------|
Db|-------------------------------|-------------------------------|
Ab|-------9-----9-------------9---|-------------------------------|
Db|-0--0-----0-----0--------0-----|-0-----------------------------|

All in all is all we all are All in all is all we are
eb|-------------------------------|-------------------------------|
Bb|-------------------------------|-------------------------------|
Gb|-------------------------------|-------------------------------|
Db|-------------------------------|-------------------------------|
Ab|-------------------------------|-------------------------------|
Db|-------------------------------|-------------------------------|

All in all is all we all are_____
eb|-----------------------------------|
Bb|-----------------------------------|
Gb|-----------------------------------|
Db|-----------------------------------|
Ab|-----------------------------------|
Db|-----------------------------------|


Thats it, all apologies for Unplugged in New York, you will have to listen to the
CD for timing and stuff (especially the Married, Buried bits and the outro)

Comments, improvments and positive critizism is apreciated and i will be happy to
change bits of the tab if you think they are wrong (as long as i think theimprovment
would sound better aswell)


***********************************
| / Slide up
| x Dead note
***********************************
Tunning: Standard (E A D G B e)
ALL APOLOGIES
As recorded by Nirvana
(From the 1993 Album IN UTERO)

Words and Music by Kurt Cobain


C/G G G5
5 7 5 5 x x 5 5 5 4 x x 5 5 5 x x x

Gtr I (Db Ab Db Gb Bb Eb) - 'Untitled'
Gtr II (Db Ab Db Gb Bb Eb) - 'Untitled'
Gtr III (Db Ab Db Gb Bb Eb) - 'Untitled'
Gtr IV (Db Ab Db Gb Bb Eb) - 'Untitled'


[Intro]

Moderately Q=112
4/4
Gtr I
E E E E a E E E E E E E E a E E E E
eb|------------------------|------------------------|
Bb|------------------------|------------------------|
Gb|------------------------|------------------------|
Db|------------------------|----------10s12-12-10-9-|
Ab|-9-9-10-9-10s12-12-10-9-|-----10-9---------------|
Db|-0----------------------|-0-0----0---------------|


E E E E a E E E E E E E E E E E E
eb|------------------------|----------------------|
Bb|------------------------|----------------------|
Gb|------------------------|----------11-11-9-----|
Db|------------------------|--------------0-0-12--|
Ab|---9-10---10s12-12-10-9-|---9-10-9-------------|
Db|-0------0-----0---------|-0------0-------------|


E E E E a E E E E E E E E a E E E E
eb|------------------------|------------------------|
Bb|------------------------|------------------------|
Gb|------------------------|------------------------|
Db|------------------------|----------10s12-12-10-9-|
Ab|---9-10---10s12-12-10-9-|---9-10-9-----------0---|
Db|-0------0---------------|-0------0---------------|


E E E E a E E E E E E E E E E E E
eb|------------------------|---------------------||
Bb|------------------------|---------------------||
Gb|------------------------|----------11-11-9----||
Db|------------------------|------------------12-||
Ab|---9-10-9-10s12-12-10-9-|---9-10-9------------||
Db|-0------0---------------|-0------0------------||


[Verse]

E E E E S S E E E E E E E a E E E E
eb|------------------------|--------------------------|
Bb|------------------------|--------------------------|
Gb|------------------------|----------------<12>------|
Db|------------------------|----------10s12--12--10-9-|
Ab|---9-10---10s12-12-10-9-|---9-10-9-----------------|
Db|-0------0---------------|-0------0-----------------|


E E E E a E E E E E E E E a E E E E
eb|------------------------|--------------------------|
Bb|------------------------|--------------------------|
Gb|------------------------|--------------------------|
Db|------------------------|----------10s12-12-10-9---|
Ab|---9-10-9-10s12-12-10-9-|---9-10-9-----------------|
Db|-0-0----0-----0---------|-0-0----0-----------0-----|


E E E E a E E E E E E E E a E E E E
eb|-------------------------|--------------------------|
Bb|-------------------------|--------------------------|
Gb|-------------------------|--------------------------|
Db|-------------------------|------------10s12-12-10-9-|
Ab|---9-10-9-10s12--12-10-9-|-----9-10-9--------0------|
Db|-0------0----------------|--0-------0---------------|
|
| Gtr II
| < <
| H +Q. E +W
eb|-------------------------|--------------------------|
Bb|-------------------------|--------------------------|
Gb|-5-----------(5)---------|--------------------------|
Db|-----------------------7-|-(7)----------------------|
Ab|-------------------------|--------------------------|
Db|-------------------------|--------------------------|


E E E E a E E E E E E E E a E E E E
eb|-------------------------|------------------------------|
Bb|-------------------------|------------------------------|
Gb|-------------------------|------------------<12>--------|
Db|-------------------------|------------10s12--12--10-9---|
Ab|-9-9-10---10s12--12-10-9-|-----9-10-9-------------0-----|
Db|-0------0-----0----------|--0--0----0-------------------|
|
| < <
| H +Q. E +W
eb|-------------------------|------------------------------|
Bb|-------------------------|------------------------------|
Gb|-5-----------(5)-------7-|-(7)--------------------------|
Db|-------------------------|------------------------------|
Ab|-------------------------|------------------------------|
Db|-------------------------|------------------------------|


E E E E a E E E E E E E E a E E E E
eb|-------------------------|--------------------------|
Bb|-------------------------|--------------------------|
Gb|-------------------------|--------------------------|
Db|-------------------------|------------10s12-12-10-9-|
Ab|-9-9-10---10s12--12-10-9-|-----9-10-9-----------0---|
Db|-0------0-----0----------|--0-------0---------------|
|
| < <
| H +Q. E +W
eb|-------------------------|--------------------------|
Bb|-------------------------|--------------------------|
Gb|-5-----------(5)---------|--------------------------|
Db|-----------------------7-|-(7)----------------------|
Ab|-------------------------|--------------------------|
Db|-------------------------|--------------------------|


E E E E a E E E E E E E E a E E E E
eb|-------------------------|----------------------------|
Bb|-------------------------|----------------------------|
Gb|-------------------------|----------------------------|
Db|-------------------------|------------10s12-12-10-9---|
Ab|-9-9-10-9-10s12--12-10-9-|-----9-10-9-----------0-----|
Db|-0------0-----0----------|--0--0----0-----------------|
|
| < <
| H +Q. E +W
eb|-------------------------|----------------------------|
Bb|-------------------------|----------------------------|
Gb|-5-----------(5)-------7-|-(7)------------------------|
Db|-------------------------|----------------------------|
Ab|-------------------------|----------------------------|
Db|-------------------------|----------------------------|


E E E E a E E E E E E E E a E E E E
eb|------------------------|------------------------|
Bb|------------------------|------------------------|
Gb|------------------------|------------------------|
Db|------------------------|----------10s12-12-10-9-|
Ab|-9-9-10---10s12-12-10-9-|---9-10-9-----------0---|
Db|-0------0-----0---------|-0-0----0---------------|


Gtr IV
E E E E a E E E E E E E E E E S S E
eb|------------------------|--------------------------||
Bb|------------------------|--------------------------||
Gb|------------------------|-------------11-11\-------||
Db|------------------------|-----------------0--------||
Ab|---9-10-9-10s12-12-10-9-|---9-10-9-10-----0--0-----||
Db|-0-0----0---------------|-0-0----0-------------5---||


[Bridge]

C/G G C/G G G5
Gtr III
E E E E E E E E E E E E E E E E
| | | | | | | | | | | | | | | |
x / x / x / x / x / x / x / x /

Gtr IV

Q Q E E E E +E E Q E E E S S
eb|-----------------|---------------------|
Bb|-----------------|---------------------|
Gb|-----------------|---------------------|
Db|-----5---5-5-x-5-|-(5)-5-5---5-5-x-5-5-|
Ab|-----5---5-5-x-5-|-(5)-5-5---5-5-x-5-5-|
Db|-5---5---5-5-x-5-|-(5)-5-5---5-5-x-5-5-|


C/G G C/G G G5
E E E E E E E E E E E E E E E E
| | | | | | | | | | | | | | | |
x / / / x / x / x / x / x / x /

Q Q E E E E +E E Q E E Q
eb|-----------------|---------------------|
Bb|-----------------|---------------------|
Gb|-----------------|---------------------|
Db|-5---5---5-5-x-5-|-(5)-5-5---5-5-------|
Ab|-5---5---5-5-x-5-|-(5)-5-5---5-5-10\---|
Db|-5---5---5-5-x-5-|-(5)-5-5---5-5-------|


C/G G C/G A5
E E E E E E E E E E E E H W
| | | | | | | | | | | |
x / / / x / x / x / / /

Q Q E E E E +E E E E E E E E W
eb|-----------------|-------------------|----------|
Bb|-----------------|-------------------|----------|
Gb|-----------------|-------------------|-2--------|
Db|-5---5---5-5---5-|-(5)-5-x-5-5-5-5-5-|-2--------|
Ab|-5---5---5-5---5-|-(5)-5-x-5-5-5-5-5-|-0--------|
Db|-5---5---5-5-5-5-|-(5)-5-x-5-5-5-5-5-|----------|


D5
W W W
+W W +H. Q
eb|------------|----------|--------------||
Bb|------------|----------|--------------||
Gb|-(2)--------|-2--------|-(2)----------||
Db|-(2)--------|-2--------|-(2)----------||
Ab|-(0)--------|-0--------|-(0)------0---||
Db|------------|----------|----------0---||


[Verse]

Gtr I
E E E E a E E E E E E E E a E E E E
eb|------------------------|------------------------|
Bb|------------------------|------------------------|
Gb|------------------------|------------------------|
Db|------------------------|----------10s12-12-10-9-|
Ab|-9-9-10-9-10s12-12-10-9-|---9-10-----------------|
Db|-0----------------------|-0------0---------------|


E E E E a E E E E E E E E E E E E
eb|------------------------|---------------------|
Bb|------------------------|---------------------|
Gb|------------------------|----------11-11-9----|
Db|------------------------|--------------0---12-|
Ab|---9-10---10s12-12-10-9-|---9-10--------------|
Db|-0------0---------------|-0------0------------|


E E E E a E E E E E E E E a E E E E
eb|------------------------|------------------------|
Bb|------------------------|------------------------|
Gb|------------------------|------------------------|
Db|------------------------|----------10s12-12-10-9-|
Ab|---9-10---10s12-12-10-9-|---9-10-9---------------|
Db|-0------0---------------|-0------0---------------|


E E E E a E E E E E E E E a E E E E
eb|------------------------|----------------------------|
Bb|------------------------|----------------------------|
Gb|------------------------|----------------<12>--------|
Db|------------------------|----------10s12--12--10-9---|
Ab|-----10-9-10s12-12-10-9-|-----10-9-------------------|
Db|-0-0----0---------------|-0-0----0-------------------|


E E E E a E E E E E E E E a E E E E
eb|-------------------------|--------------------------|
Bb|-------------------------|--------------------------|
Gb|-------------------------|--------------------------|
Db|-------------------------|------------10s12-12-10-9-|
Ab|-9-9-10---10s12--12-10-9-|-----9-10-----------------|
Db|-0------0-----0----------|--0-------0---------------|
|
| Gtr II
| < <
| H +Q. E +W
eb|-------------------------|--------------------------|
Bb|-------------------------|--------------------------|
Gb|-5-----------(5)---------|--------------------------|
Db|-----------------------7-|-(7)----------------------|
Ab|-------------------------|--------------------------|
Db|-------------------------|--------------------------|


E E E E a E E E E E E E E a E E E E
eb|-------------------------|----------------------------|
Bb|-------------------------|----------------------------|
Gb|-------------------------|------------------12--------|
Db|-------------------------|------------------12-10-9---|
Ab|-9-9-10---10s12--12-12-9-|-------10-9-10s11-----------|
Db|-0------0----------------|--0--0----0-----------------|
|
| < <
| H +Q. E +W
eb|-------------------------|----------------------------|
Bb|-------------------------|----------------------------|
Gb|-5-----------(5)-------7-|-(7)------------------------|
Db|-------------------------|----------------------------|
Ab|-------------------------|----------------------------|
Db|-------------------------|----------------------------|


E E E E a E E E E E E E E a E E E E
eb|-------------------------|---------------------------|
Bb|-------------------------|---------------------------|
Gb|-------------------------|---------------------------|
Db|-------------------------|------------10s12--12-10-9-|
Ab|-9-9-10---10s12--12-12-9-|-----9-10-9---------0------|
Db|-0------0----------------|--0-------0----------------|
|
| < <
| H +Q. E +H +Q. E
eb|-------------------------|---------------------------|
Bb|-------------------------|---------------------------|
Gb|-5-----------(5)---------|---------------------------|
Db|-----------------------7-|-(7)-----------(7)-------7-|
Ab|-------------------------|---------------------------|
Db|-------------------------|---------------------------|


E E E E a E E E E E E E S S E E E E
eb|----------------------------|------------------------||
Bb|----------------------------|------------------------||
Gb|----------------------------|----------------4-4-----||
Db|------------------<12>------|----------------5-5-----||
Ab|----9-10---10s12---12--10-9-|-----9-10-------5-5-----||
Db|--0------0-----0------------|--0-------0-0-0-5-5p0---||
|
| Q E E +Q E E +E E E E E E Q
eb|----------------------------|------------------------||
Bb|----------------------------|------------------------||
Gb|----------------------------|------------------------||
Db|-/4-------------------------|------------------------||
Ab|-------7-5----(5)-------3---|------------------------||
Db|--------------------------7-|-(7)-7--7-5---4-2-0-----||


[Bridge]

G5
Gtr IV
Q Q E E E E +E E Q E E E E E S S Q Q E E
eb|---------------|------------------|-----------------|
Bb|---------------|------------------|-----------------|
Gb|---------------|------------------|-----------------|
Db|-5--5--5-5-5-5-|-(5)-5-5--5-5-5---|-5-5-5-5--5--5-5-|
Ab|-5--5--5-5-5-5-|-(5)-5-5--5-5-5---|-5-5-5-5--5--5-5-|
Db|-5--5--5-5-5-5-|-(5)-5-5--5-5-5p0-|-5-5-5-5--5--5-5-|


E E Q E E E E Q E E Q E S S E E E E E E E E
eb|----------------|-----------------|-----------------|
Bb|----------------|-----------------|-----------------|
Gb|----------------|-----------------|-----------------|
Db|-5-5-5--5-5-5---|-5--5-5-5--5-5-5-|-5-5-5-5-5-5-5---|
Ab|-5-5-5--5-5-5---|-5--5-5-5--5-5-5-|-5-5-5-5-5-5-5p0-|
Db|-5-5-5--5-5-5-0-|-5--5-5-5--5-5-5-|-5-5-5-5-5-5-5p0-|


A5
W +W W +Q. E +Q Q
eb|----------|------------|------------|--------------------|
Bb|----------|------------|------------|----------------2---|
Gb|-2--------|-(2)--------|------------|--------------------|
Db|-2--------|-(2)--------|------------|---------2-(2)------|
Ab|-0--------|-(0)--------|-[0]--------|-([0])--------------|
Db|----------|------------|------------|--------------------|


W +Q. E +E Q E W +H E. S E E
eb|----------|------------------|----------|------------------||
Bb|----------|-------2-(2)------|----------|------------------||
Gb|-2--------|-(2)---------2--2-|----------|--------2--2------||
Db|-2--------|-(2)---------2--2-|----------|--------2--2------||
Ab|-0--------|-(0)---------0--0-|-0--------|-(0)-----------9--||
Db|----------|------------------|----------|---------------0--||


[Chorus]

E E E E a E E E E E E E E a E E E E
eb|------------------------|--------------------------|
Bb|------------------------|--------------------------|
Gb|------------------------|----------------<12>------|
Db|------------------------|----------10s12--12--10-9-|
Ab|-9-9-10-9-10s12-12-10-9-|---9-10-9-----------------|
Db|--------0---------------|-0------0-----------------|


E E E E a E E E E E E E E E E E E
eb|------------------------|---------------------|
Bb|------------------------|---------------------|
Gb|------------------------|----------11-11-9----|
Db|------------------------|------------------12-|
Ab|---9-10---10s12-12-10-9-|---9-10--------------|
Db|-0------0---------------|-0------0------------|


E E E E a E E E E E E E E a E E E E
eb|------------------------|------------------------|
Bb|------------------------|------------------------|
Gb|------------------------|------------------------|
Db|------------------------|----------10s12-12-10-9-|
Ab|-9-9-10-9-10s12-12-10-9-|-----10-9---------------|
Db|-0------0---------------|-0-0----0---------------|


E E E E a E E E E E E E E E E E E
eb|--------------------------|---------------------|
Bb|--------------------------|---------------------|
Gb|--------------------------|----------11-11-9----|
Db|----------------<12>------|------------------12-|
Ab|---9-10---10s12--12--10-9-|---9-10-9------------|
Db|-0------0-----------------|-0------0------------|


E E E E a E E E E E E E E a E E E E
eb|------------------------|------------------------|
Bb|------------------------|------------------------|
Gb|------------------------|------------------------|
Db|------------------------|----------10s12-12-10-9-|
Ab|-9-9-10-9-10s12-12-10-9-|---9-10-9---------------|
Db|-0------------0---------|-0----------------------|


E E E E a E E E E E E E E E E E E
eb|------------------------|---------------------|
Bb|------------------------|---------------------|
Gb|------------------------|----------11-11-9----|
Db|------------------------|------------------12-|
Ab|---9-10-9-10s12-12-10-9-|---9-10--------------|
Db|-0------0-----0---------|-0------0------------|


E E E E a E E E E E E E E a E E E E
eb|------------------------|--------------------------|
Bb|------------------------|--------------------------|
Gb|------------------------|----------------<12>------|
Db|------------------------|----------10s12--12--10-9-|
Ab|-9-9-10---10s12-12-10-9-|---9-10-9-------------0-0-|
Db|-0------0-----0---------|-0------0-----------------|


E E E E a E E E E E E E E a E E E E
eb|------------------------|----------------------------|
Bb|------------------------|----------------------------|
Gb|------------------------|----------------------------|
Db|------------------------|----------------<12>--------|
Ab|---9-10---10s12-12-10-9-|---9-10-9-10s12--12--10-9---|
Db|-0------0-----0---------|-0------0-----0-------------|


E E E E a E E E E E E E E a E E E E
eb|------------------------|------------------------|
Bb|------------------------|------------------------|
Gb|------------------------|------------------------|
Db|------------------------|------------------------|
Ab|---9-10---10s12-12-10-9-|-----10---10s12-12-10-9-|
Db|-0------0-------------0-|-0-0----0-----0---------|


E E E E Q. E Q. E +H
eb|----------------|---------------|
Bb|----------------|---------------|
Gb|----------------|---------------|
Db|----------------|---------------|
Ab|-----9----------|---------------|
Db|-0-0---0-0----0-|-0----0-(0)----|


+W +W W +W
eb|------------|------------|----------|--------|
Bb|------------|------------|----------|--------|
Gb|------------|------------|----------|--------|
Db|------------|------------|----------|--------|
Ab|------------|------------|----------|--------|
Db|-(0)--------|-(0)--------|-0--------|-(0)----|


+W +W +W +H. Q
eb|------------|------------|------------|--------------|
Bb|------------|------------|------------|--------------|
Gb|------------|------------|------------|--------------|
Db|------------|------------|------------|--------------|
Ab|------------|------------|------------|--------------|
Db|-(0)--------|-(0)--------|-(0)--------|-(0)------0---|


+E E Q +E E Q +Q Q +H
eb|-------------------------|------------------|
Bb|-------------------------|------------------|
Gb|-------------------------|------------------|
Db|-------------------------|------------------|
Ab|-------------------------|------------------|
Db|-(0)-0-(0)--(0)-(0)-(0)--|-(0)--(0)--(0)----|


+E E Q +E E Q +H. Q
eb|-------------------------|----------------|
Bb|-------------------------|----------------|
Gb|-------------------------|----------------|
Db|-------------------------|----------------|
Ab|-------------------------|----------------|
Db|-(0)-(0)-(0)--(0)-(0)-0--|-(0)------<1>---|


+Q Q +Q Q +Q Q Q E E
eb|-------------------------|------------------------|
Bb|-------------------------|------------------------|
Gb|-------------------------|------------------------|
Db|-------------------------|------------------------|
Ab|-------------------------|------------------------|
Db|-(<1>)--<1>--(<1>)--<1>--|-(<1>)--<3>--<3>--<1>-0-|


+E. S E E Q Q +Q Q +Q Q
eb|-------------------|-----------------------------|
Bb|-------------------|--------<12>--(<12>)---------|
Gb|-------------------|--------<12>--(<12>)---------|
Db|-------------------|-----------------------------|
Ab|-------------------|-----------------------------|
Db|-(0)-0-0-0-0--<3>--|-(<3>)----------------<12>---|


W +W +W +W
eb|----------|------------|------------|--------|
Bb|----------|------------|------------|--------|
Gb|----------|------------|------------|--------|
Db|----------|------------|------------|--------|
Ab|----------|------------|------------|--------|
Db|-0--------|-(0)--------|-(0)--------|-(0)----|


Wx4
eb|--------*|
Bb|--------*|
Gb|--------*|
Db|--------*|
Ab|--------*|
Db|--------*|


Duration Legend
---------------
W - whole; H - half; Q - quarter; E - 8th; S - 16th; T - 32nd; X - 64th; a - acciaccatura
+ - note tied to previous; . - note dotted; .. - note double dotted
Uncapitalized letters represent notes that are staccato (1/2 duration)
Irregular groupings are notated above the duration line
Duration letters will always appear directly above the note/fret number it represents the
duration for. Duration letters with no fret number below them represent rests. Multi-
bar rests are notated in the form Wxn, where n is the number of bars to rest for. Low
melody durations appear below the staff

Tablature Legend
----------------
h - hammer-on
p - pull-off
b - bend
pb - pre-bend
r - bend release (if no number after the r, then release immediately)
/\ - slide into or out of (from/to "nowhere")
s - legato slide
S - shift slide
- natural harmonic
[n] - artificial harmonic
n(n) - tapped harmonic
~ - vibrato
tr - trill
T - tap
TP - trem. picking
PM - palm muting
\n/ - tremolo bar dip; n = amount to dip
\n - tremolo bar down
n/ - tremolo bar up
/n\ - tremolo bar inverted dip
= - hold bend; also acts as connecting device for hammers/pulls
<> - volume swell (louder/softer)
x - on rhythm slash represents muted slash
o - on rhythm slash represents single note slash

Misc Legend
-----------
| - bar
|| - double bar
||o - repeat start
o|| - repeat end
*| - double bar (ending)
: - bar (freetime)
$ - Segno
& - Coda
Tempo markers - = BPM(8/16=s8/s16), where s8 = swing 8ths, s16 = swing 16ths


Kurt Cobain 1967-1994
Tunning: Standard (E A D G B e)
-------------------------------------------------------------------------------
ALL APOLOGIES – HOME DEMO - Nirvana
-------------------------------------------------------------------------------
this tab is ONLY correct for the home demo off of With The Lights Out and the Sliver box
not for the album version.

Tabbed by:Carrie Davies
Email:quietiamsleeping@yahoo.com

Tuning:Kurts guitar is just the slightest bit flat,not enough to worry about though

Acous
e|--------------------------------------------------------------------------------|
B|--------------------------------------------------------------------------------|
G|---------------------------------------------------------------------9-9-7------|
D|-----------------------------8/10-10-8-7-----------------------------------10---|x2
A|-7-7-8-7-8/10-10-8-7-7-7-8-7-------------7-7-8-7-8/10-10-8-7-7-7-8-7------------|
E|-0-----0-------------0-----0-------------0-----0-------------0-----0------------|

e|-------------------------------------------|
B|-------------------------------------------|
G|-------------------------------------------|
D|-----------------------------8/10-10-8-7---|
A|-7-7-8-7-8/10-10-8-7-7-7-8-7---------------|
E|-0-----0-------------0-----0---------------|
What else could I be
All Apologies
What else could I write
I dont wanna fight
What else could I say
All the words were grey
What else could I be

e|-------------------------------------|
B|---------------------------------0---|
G|-----------------------------5-5-0---|
D|-----------------------------5-5-0---|
A|-7-7-8-7-8/10-10-8-7-7-7-8-7-3-3-0---|
E|-0-----0-------------0-----0-3-3-----|
All apologies

e|------------------|
B|------------------|
G|------------------|
D|-3--3-3-3-3-3-3---|
A|-3--3-3-3-3-3-3---|
E|-1--1-1-1-1-1-1---|
In the sun
In the sun
I feel as one
In the sun (start bringing in bottom strings of the full ver of the F chord)
In the sun

e|---------------------------------------------|
B|---------3---3-----3-----3-------------------|
G|---------4---4-----4-----4-------------------|
D|-x-5-----------5-5---------5-5-5-5-5-5-5-5---|
A|-x-5---5-------5-5-----5---5-5-5-5-5-5-5-5---|
E|-x-3-3-----3-----3---3-----3-3-3-3-3-3-3-3---|
Married Married

e|-------------------------------------------|
B|-------------------------------------------|
G|-------------------------------------------|
D|-----------------------------8/10-10-8-7---|
A|-7-7-8-7-8/10-10-8-7-7-7-8-7---------------|
E|-0-----0-------------0-----0---------------|
What else could I be
All Apologies
What else could I write
I dont wanna fight

e|-------------------------------------------------|
B|-------------------------------------------------|
G|-------------------------------------------------|
D|-------------------------------------------------|
A|-7-7-8-7-8/10-10-8-7-7-7-8-7-7-8-7-8/10-10-8-7---|
E|-0-----0-------------0-----0-----0---------------|
What else could I say

e|-------------------------------------------|
B|-------------------------------------------|
G|-------------------------------------------|
D|-----------------------------8/10-10-8-7---|
A|-7-7-8-7-8/10-10-8-7-7-7-8-7---------------|
E|-0-----0-------------0-----0---------------|
All the words were grey
What else could I be

e|-------------------------------------------|
B|-------------------------------------------|
G|-----------------------------------x-x-x---|
D|-----------------------------8/10--5-5-x---|
A|-7-7-8-7-8/10-10-8-7-7-7-8-7-------3-3-x---|
E|-0-----0-------------0-----0-------3-3-----|
All apologies

e|--------------------|
B|--------------------|
G|--------------------| (every now and then playing the bottom
D|-3--3-3-3-3-3-3-3---| strings of the full ver of the F chord)
A|-3--3-3-3-3-3-3-1---|
E|-1--1-1-1-1-1-1-1---|
In the sun
In the sun
I feel as one
In the sun
In the sun

e|-------3-------------------------------------------------------|
B|-------------------------3-------------------------------3-3---|
G|---4-4---4---------------4-------------------------------4-4---|
D|-5-5-------5---------5---5-------5-5-5-----5-----5---5-5---5---|
A|-5-----------5---5-5-5-5---5-5---5-5-5---5---------5-5-5-------|
E|-3-------------3-3-3-3---------3-3-3-3-3-----3-3-----3-3-------|
Married Married Married

e|-------------------|
B|-------------------|
G|-------------------|
D|-5-5-5-5-5-5-5-5---|
A|-5-5-5-5-5-5-5-5---|
E|-3-3-3-3-3-3-3-3---|
Yeah Yeah Yeah Yeah

e|--------------------------------------------------------------------------------|
B|--------------------------------------------------------------------------------|
G|---------------------------------------------------------------------9-9-7------|
D|-----------------------------8/10-10-8-7-----------------------------------10---|
A|-7-7-8-7-8/10-10-8-7-7-7-8-7-------------7-7-8-7-8/10-10-8-7-7-7-8-7------------|
E|-0-----0-------------0-----0-------------0-----0-------------0-----0------------|

e|-------------------------------------------|
B|-------------------------------------------|
G|-------------------------------------------|
D|-----------------------------8/10-10-8-7---|x10
A|-7-7-8-7-8/10-10-8-7-7-7-8-7---------------|
E|-0-----0-------------0-----0---------------|
all in all is all we are

e|-----------------------7---|
B|-----------------------7---|
G|---9-----------9-9-----8---|
D|---x-----------x-------9---|
A|-7---7---7---7-----7---9---|
E|-0-----0---0-0-------0-7---|

| / slide up
| \ slide down
| x Mute note
===============================================================================
this TAB probably isn’t too correct.i did it a few months ago and since then i havent
it.so sorry if some of it is not right.
PLEASE RATE!
Tunning: Standard (E A D G B e)
ALL APOLOGIES
As recorded by Nirvana

Tabbed by:italyguy


Words and Music by Kurt Cobain



Gtr I (Db Ab Db Gb Bb Eb) - 'Untitled'
Tune all down a half step and the low E, which is now an Eb is tuned to Db.


[Intro]
Moderately
4/4
Gtr I
D#|------------------------|------------------------|
A#|------------------------|------------------------|
F#|------------------------|------------------------|
C#|------------------------|----------10s12-12-10-9-|
G#|-9-9-10-9-10s12-12-10-9-|-----10-9---------------|
D#|-0----------------------|-0-0----0---------------|


D#|------------------------|----------------------|
A#|------------------------|----------------------|
F#|------------------------|----------11-11-9-----|
C#|------------------------|--------------0-0-12--|
G#|---9-10---10s12-12-10-9-|---9-10-9-------------|
D#|-0------0-----0---------|-0------0-------------|


D#|------------------------|------------------------|
A#|------------------------|------------------------|
F#|------------------------|------------------------|
C#|------------------------|----------10s12-12-10-9-|
G#|---9-10---10s12-12-10-9-|---9-10-9-----------0---|
D#|-0------0---------------|-0------0---------------|


D#|------------------------|---------------------||
A#|------------------------|---------------------||
F#|------------------------|----------11-11-9----||
C#|------------------------|------------------12-||
G#|---9-10-9-10s12-12-10-9-|---9-10-9------------||
D#|-0------0---------------|-0------0------------||


[Verse]
D#|------------------------|--------------------------|
A#|------------------------|--------------------------|
F#|------------------------|----------------<12>------|
C#|------------------------|----------10s12--12--10-9-|
G#|---9-10---10s12-12-10-9-|---9-10-9-----------------|
D#|-0------0---------------|-0------0-----------------|


D#|------------------------|--------------------------|
A#|------------------------|--------------------------|
F#|------------------------|--------------------------|
C#|------------------------|----------10s12-12-10-9---|
G#|---9-10-9-10s12-12-10-9-|---9-10-9-----------------|
D#|-0-0----0-----0---------|-0-0----0-----------0-----|


D#|-------------------------|--------------------------|
A#|-------------------------|--------------------------|
F#|-------------------------|--------------------------|
C#|-------------------------|------------10s12-12-10-9-|
G#|---9-10-9-10s12--12-10-9-|-----9-10-9--------0------|
D#|-0------0----------------|--0-------0---------------|


D#|-------------------------|------------------------------|
A#|-------------------------|------------------------------|
F#|-------------------------|------------------<12>--------|
C#|-------------------------|------------10s12--12--10-9---|
G#|-9-9-10---10s12--12-10-9-|-----9-10-9-------------0-----|
D#|-0------0-----0----------|--0--0----0-------------------|
|


D#|-------------------------|--------------------------|
A#|-------------------------|--------------------------|
F#|-------------------------|--------------------------|
C#|-------------------------|------------10s12-12-10-9-|
G#|-9-9-10---10s12--12-10-9-|-----9-10-9-----------0---|
D#|-0------0-----0----------|--0-------0---------------|
|


D#|-------------------------|----------------------------|
A#|-------------------------|----------------------------|
F#|-------------------------|----------------------------|
C#|-------------------------|------------10s12-12-10-9---|
G#|-9-9-10-9-10s12--12-10-9-|-----9-10-9-----------0-----|
D#|-0------0-----0----------|--0--0----0-----------------|


D#|------------------------|------------------------|
A#|------------------------|------------------------|
F#|------------------------|------------------------|
C#|------------------------|----------10s12-12-10-9-|
G#|-9-9-10---10s12-12-10-9-|---9-10-9-----------0---|
D#|-0------0-----0---------|-0-0----0---------------|


D#|------------------------|--------------------------||
A#|------------------------|--------------------------||
F#|------------------------|-------------11-11\-------||
C#|------------------------|-----------------0--------||
G#|---9-10-9-10s12-12-10-9-|---9-10-9-10-----0--0-----||
D#|-0-0----0---------------|-0-0----0-------------5---||

CHORUS or (use 355xxx if only tuned to drop D, not an additional half step down)
G
In the sun___ in the sun I feel as one
D#|--------------------------------------------------------------|-
A#|--------------------------------------------------------------|-
F#|--------------------------------------------------------------|-
C#|-5-5-5-x--5-5-5-5--------5-5-5-x--5-5-5-5--5-5-5--5-5-5-5-----|-
G#|-5-5-5-x--5-5-5-5--------5-5-5-x--5-5-5-5--5-5-5--5-5-5-5-----|-
D#|-5-5-5-x--5-5-5-5--------5-5-5-x--5-5-5-5--5-5-5--5-5-5-5-----|-

In the sun_____, In the sun__________
D#|--------------------------------------------------------------|-
A#|--------------------------------------------------------------|-
F#|--------------------------------------------------------------|-
C#|-5-5-5---5-5-5-5--------5-5-5---5-5-5-5----5-5--5-5-5-5-------|-
G#|-5-5-5---5-5-5-5--------5-5-5---5-5-5-5----5-5--5-5-5-5-------|-
D#|-5-5-5---5-5-5-5--------5-5-5---5-5-5-5----5-5--5-5-5-5-------|-


[Bridge]
A
Married___ Buried___ Married__
D#|-0---------------------------|-0---------------------0--------------|-
A#|-2-------------2------------2|-2--2----2-------------2--------------|-
F#|-2----2----2---2----2-------2|-2--2----2-------2-----2---------2--2-|-
C#|-2-----------0------2-2---2--|-2------------2--2-----2-------2----2-|-
G#|-0------0---------------0----|-0----------0----------0--0--0--------|-
D#|-----------------------------|--------------------------------------|-

Buried
D#|-0---------------0--0-0-0---0-0-0---0---0---0-----------|-
A#|-2----2-----2----2--2-2-2---2-2-2---2---2---2-----------|-
F#|-2----2---2-2----2--2-2-2---2-2-2---2---2---2-----------|-
C#|-2--------2------2--2-2-2---2-2-2---2---2---2-----------|-
G#|-0---------------0--0-0-0---0-0-0---0---0---0-----------|-
D#|--------------------------------------------------------|-




[Verse]
Gtr I
D#|------------------------|------------------------|
A#|------------------------|------------------------|
F#|------------------------|------------------------|
C#|------------------------|----------10s12-12-10-9-|
G#|-9-9-10-9-10s12-12-10-9-|---9-10-----------------|
D#|-0----------------------|-0------0---------------|


D#|------------------------|---------------------|
A#|------------------------|---------------------|
F#|------------------------|----------11-11-9----|
C#|------------------------|--------------0---12-|
G#|---9-10---10s12-12-10-9-|---9-10--------------|
D#|-0------0---------------|-0------0------------|


D#|------------------------|------------------------|
A#|------------------------|------------------------|
F#|------------------------|------------------------|
C#|------------------------|----------10s12-12-10-9-|
G#|---9-10---10s12-12-10-9-|---9-10-9---------------|
D#|-0------0---------------|-0------0---------------|


D#|------------------------|----------------------------|
A#|------------------------|----------------------------|
F#|------------------------|----------------<12>--------|
C#|------------------------|----------10s12--12--10-9---|
G#|-----10-9-10s12-12-10-9-|-----10-9-------------------|
D#|-0-0----0---------------|-0-0----0-------------------|


D#|-------------------------|--------------------------|
A#|-------------------------|--------------------------|
F#|-------------------------|--------------------------|
C#|-------------------------|------------10s12-12-10-9-|
G#|-9-9-10---10s12--12-10-9-|-----9-10-----------------|
D#|-0------0-----0----------|--0-------0---------------|


D#|-------------------------|----------------------------|
A#|-------------------------|----------------------------|
F#|-------------------------|------------------12--------|
C#|-------------------------|------------------12-10-9---|
G#|-9-9-10---10s12--12-12-9-|-------10-9-10s11-----------|
D#|-0------0----------------|--0--0----0-----------------|


D#|-------------------------|---------------------------|
A#|-------------------------|---------------------------|
F#|-------------------------|---------------------------|
C#|-------------------------|------------10s12--12-10-9-|
G#|-9-9-10---10s12--12-12-9-|-----9-10-9---------0------|
D#|-0------0----------------|--0-------0----------------|


D#|----------------------------|------------------------||
A#|----------------------------|------------------------||
F#|----------------------------|----------------4-4-----||
C#|------------------<12>------|----------------5-5-----||
G#|----9-10---10s12---12--10-9-|-----9-10-------5-5-----||
D#|--0------0-----0------------|--0-------0-0-0-5-5p0---||
|

[Chorus]
G
In the sun___ in the sun I feel as one
D#|--------------------------------------------------------------|-
A#|--------------------------------------------------------------|-
F#|--------------------------------------------------------------|-
C#|-5-5-5-x--5-5-5-5--------5-5-5-x--5-5-5-5--5-5-5--5-5-5-5-----|-
G#|-5-5-5-x--5-5-5-5--------5-5-5-x--5-5-5-5--5-5-5--5-5-5-5-----|-
D#|-5-5-5-x--5-5-5-5--------5-5-5-x--5-5-5-5--5-5-5--5-5-5-5-----|-

In the sun_____, In the sun__________
D#|--------------------------------------------------------------|-
A#|--------------------------------------------------------------|-
F#|--------------------------------------------------------------|-
C#|-5-5-5---5-5-5-5--------5-5-5---5-5-5-5----5-5--5-5-5-5-------|-
G#|-5-5-5---5-5-5-5--------5-5-5---5-5-5-5----5-5--5-5-5-5-------|-
D#|-5-5-5---5-5-5-5--------5-5-5---5-5-5-5----5-5--5-5-5-5-------|-

[Bridge]
A
Married___ Buried___ Married__
D#|-0---------------------------|-0---------------------0--------------|-
A#|-2-------------2------------2|-2--2----2-------------2--------------|-
F#|-2----2----2---2----2-------2|-2--2----2-------2-----2---------2--2-|-
C#|-2-----------0------2-2---2--|-2------------2--2-----2-------2----2-|-
G#|-0------0---------------0----|-0----------0----------0--0--0--------|-
D#|-----------------------------|--------------------------------------|-

Buried
D#|-0---------------0--0-0-0---0-0-0---0---0---0-----------|-
A#|-2----2-----2----2--2-2-2---2-2-2---2---2---2-----------|-
F#|-2----2---2-2----2--2-2-2---2-2-2---2---2---2-----------|-
C#|-2--------2------2--2-2-2---2-2-2---2---2---2-----------|-
G#|-0---------------0--0-0-0---0-0-0---0---0---0-----------|-
D#|--------------------------------------------------------|-

[Outro]
D#|------------------------|--------------------------|
A#|------------------------|--------------------------|
F#|------------------------|----------------<12>------|
C#|------------------------|----------10s12--12--10-9-|
G#|-9-9-10-9-10s12-12-10-9-|---9-10-9-----------------|
D#|--------0---------------|-0------0-----------------|


D#|------------------------|---------------------|
A#|------------------------|---------------------|
F#|------------------------|----------11-11-9----|
C#|------------------------|------------------12-|
G#|---9-10---10s12-12-10-9-|---9-10--------------|
D#|-0------0---------------|-0------0------------|


D#|------------------------|------------------------|
A#|------------------------|------------------------|
F#|------------------------|------------------------|
C#|------------------------|----------10s12-12-10-9-|
G#|-9-9-10-9-10s12-12-10-9-|-----10-9---------------|
D#|-0------0---------------|-0-0----0---------------|


D#|--------------------------|---------------------|
A#|--------------------------|---------------------|
F#|--------------------------|----------11-11-9----|
C#|----------------<12>------|------------------12-|
G#|---9-10---10s12--12--10-9-|---9-10-9------------|
D#|-0------0-----------------|-0------0------------|


D#|------------------------|------------------------|
A#|------------------------|------------------------|
F#|------------------------|------------------------|
C#|------------------------|----------10s12-12-10-9-|
G#|-9-9-10-9-10s12-12-10-9-|---9-10-9---------------|
D#|-0------------0---------|-0----------------------|


D#|------------------------|---------------------|
A#|------------------------|---------------------|
F#|------------------------|----------11-11-9----|
C#|------------------------|------------------12-|
G#|---9-10-9-10s12-12-10-9-|---9-10--------------|
D#|-0------0-----0---------|-0------0------------|


D#|------------------------|--------------------------|
A#|------------------------|--------------------------|
F#|------------------------|----------------<12>------|
C#|------------------------|----------10s12--12--10-9-|
G#|-9-9-10---10s12-12-10-9-|---9-10-9-------------0-0-|
D#|-0------0-----0---------|-0------0-----------------|


D#|------------------------|----------------------------|
A#|------------------------|----------------------------|
F#|------------------------|----------------------------|
C#|------------------------|----------------<12>--------|
G#|---9-10---10s12-12-10-9-|---9-10-9-10s12--12--10-9---|
D#|-0------0-----0---------|-0------0-----0-------------|


D#|------------------------|------------------------|
A#|------------------------|------------------------|
F#|------------------------|------------------------|
C#|------------------------|------------------------|
G#|---9-10---10s12-12-10-9-|-----10---10s12-12-10-9-|
D#|-0------0-------------0-|-0-0----0-----0---------|


All in all is all we all are
D#|------------------------------------|
A#|------------------------------------|
F#|------------------------------------|
C#|------------------------------------|
G#|-9-------9----9----------9--9--9----|
D#|-0---0---0----0---0---0--0-----0----|


All in all is all we all are All in all is all we all are
D#|-------------------------------|-------------------------------|
A#|-------------------------------|-------------------------------|
F#|-------------------------------|-------------------------------|
C#|-------------------------------|-------------------------------|
G#|-9-----9-------9-----9-------9-|-------9-----9-9-9-9--9--------|
D#|-0--0-----0--0----0-----0--0---|-0--0-----0-----------0--0-----|



All in all is all we all are All in all is all we all are
D#|-------------------------------|-------------------------------|
A#|-------------------------------|-------------------------------|
F#|-------------------------------|-------------------------------|
C#|-------------------------------|-------------------------------|
G#|-------9-----9-------------9---|-------------------------------|
D#|-0--0-----0-----0--------0-----|-0-----------------------------|


All in all is all we all are All in all is all we are
D#|-------------------------------|-------------------------------|
A#|-------------------------------|-------------------------------|
F#|-------------------------------|-------------------------------|
C#|-------------------------------|-------------------------------|
G#|-------------------------------|-------------------------------|
D#|-------------------------------|-------------------------------|


All in all is all we all are_____
D#|-----------------------------------|
A#|-----------------------------------|
F#|-----------------------------------|
C#|-----------------------------------|
G#|-----------------------------------|
D#|-----------------------------------|




Duration Legend
---------------
W - whole; H - half; Q - quarter; E - 8th; S - 16th; T - 32nd; X - 64th; a - acciaccatura
+ - note tied to previous; . - note dotted; .. - note double dotted
Uncapitalized letters represent notes that are staccato (1/2 duration)
Irregular groupings are notated above the duration line
Duration letters will always appear directly above the note/fret number it represents the
duration for. Duration letters with no fret number below them represent rests. Multi-
bar rests are notated in the form Wxn, where n is the number of bars to rest for. Low
melody durations appear below the staff


Misc Legend
-----------
| - bar
|| - double bar
||o - repeat start
o|| - repeat end
*| - double bar (ending)
: - bar (freetime)
$ - Segno
& - Coda

************************************

| \ Slide down
| b Bend
| x Dead note
| p Pull-off

************************************

Kurt Cobain 1967-1994
Tunning: Standard (E A D G B e)
His guitar is flat, but not tuned a half step down. Dont worry about it
The E string is flat, but not quite D

INTRO/ Verse
E ---------------|---------------|----------------|---------1-1-------|
B ---------------|---------------|----------------|--------------4-2--|
G ---------------|--------6-6-4-3|----------------|-------------------|
D 3-3-4-3-6-6-4-3~|-3-4-3--------|3-3-4-3-6-6-4-3~|---3-4-3-----------|
A ---------------|---------------|----------------|-------------------|
Eb ---------------|---------------|----------------|-------------------|

Chorus
E -------------------------------------|
B -------------------------------------|
G -------------------------------------|
D -4-4-4-4-4-4-4-4-------------6~------|
A -4-4-4-4-4-4-4-4-------------6~------|
Eb -2-2-2-2-2-2-2-2-------------4~------|


Despite all the tabs, Kurt played this live on a TV interview for their unplugged album.
Song info
All Apologies
Nirvana
2001
  • Rock
  • Alternative Rock
  • Grunge
Alternative tracks
Similar songs
Obstacle 1 - Interpol
Hole In The Earth - Deftones
Doll Parts - Hole
No Excuses - Alice in Chains

Hi! Hope you enjoy backing track experience.
If you want to help us in the development of the project, feel free to donate!