Aneurysm - Nirvana
00:00 / 00:00
Tabs and lyrics
[Intro]

e|------------------------------------------|
B|------------------------------------------|
G|--------5--4------------------------------|
D|---4----5--4----7-------------------------| Repeat 2 times
A|---4----3--2----7-------------------------|
E|---2------------5-------------------------|


now this part is like a few notes palm muted on the fret board i think its this:


e|---1----5--7---9--10----------------------|
B|---1----5--7---9--10----------------------|
G|---1----5--7---9--10----------------------|
D|---1----5--7---9--10----------------------|
A|---1----5--7---9--10----------------------|
E|---1----5--7---9--10----------------------|


e|------------------------------------------|
B|------------------------------------------|
G|--------5--4------------------------------|
D|---4----5--4----7-------------------------| Repeat 8 times
A|---4----3--2----7-------------------------|
E|---2------------5-------------------------|

[Verse]

e|------------------------------------------|
B|------------------------------------------|
G|--4--------------------------7------------|Repeat 4 times
D|--4--------------------------7------------|
A|--2--------------------------5------------|
E|------------------------------------------|

riff:

e|------------------------------------------|
B|------------------------------------------|
G|----------------3-4--3--------------------|
D|-3----4---7-----3-4--3----7---------------|
A|-3----4---7-----1-2--1----7---------------|
E|-1----2---5---------------5---------------|


[Verse]

e|------------------------------------------|
B|------------------------------------------|
G|--4--------------------------7------------|Repeat 4 times
D|--4--------------------------7------------|
A|--2--------------------------5------------|
E|------------------------------------------|

back to the second bit of tab

play till end

e|------------------------------------------|
B|------------------------------------------|
G|--------5--4------------------------------|
D|---4----5--4----7-------------------------|
A|---4----3--2----7-------------------------|
E|---2------------5-------------------------|


tabbed by sam yates
Song: Aneurysm
Artist: Nirvana




Intro:
-------------I-----------------I
-------------I-----------------I
---------0---I---0-------2-----I
4--4-0--0--0-I-0---0---2---0---I
4--4-0-3-----I2------0-----0---I
2--2-0-------I-----------------i


ascending riff 1
----------------I-----------------I-----------------I-----------------I
----------------I-----------------I-----------------I-----------------I
3-3-3-3-3-3-3-3-I-3-3-3-3-3-3-3-3-I-3/4-4-4-4-4-4-4-I-4-4-4-4-4-4-4-4-I
----------------I-----------------I-----------------I-----------------I
----------------I-----------------I-----------------I-----------------I
----------------I-----------------I-----------------I-----------------I

-----------------I----------------I-----------------I---------------------I
-----------------I----------------I-----------------I---------------------I
4/5-5-5-5-5-5-5--I5-5-5-5-5-5-5/6-I-6-6-6-6-6-7-7-7-I-8-8-9-9-10-10-11/-0-I
-----------------I----------------I-----------------I---------------------I
-----------------I----------------I-----------------I---------------------I
-----------------I----------------I-----------------I---------------------I


main riff
---------------I----------------I
---------------I----------------I
------/5-5-5-5\I4-4-4-0-2-2-2-0-I
4--4-0/5-5-5-5\I4-4-4-0-2-2-2-0-I
4--4-0/3-3-3-3\I2-2-2-0-0-0-0-0-I
2--2-0---------I----------------I


ascending riff 2
-----------------I-----------------I-----------------I-----------------I
-----------------I-----------------I-----------------I-----------------I
-3-3-3-3-3-3-3-3-I-3/4-4-4-4-4-4-4-I-4/5-5-5-5-5-5-5-I-5/6-6-6-6-6-6-6-I
-----------------I-----------------I-----------------I-----------------I
-----------------I-----------------I-----------------I-----------------I
-----------------I-----------------I-----------------I-----------------I

-----------------I-----------------I-----------------I-/18-18-18-18-18-18-18---I
-----------------I-----------------I-----------------I-/17-17-17-17-17-17-17---I
-6/7-7-7-7-7-7-7-I-7/8-8-8-8-8-8-8-I-8/9-9-9-9-9-9-9-I-/16-16-16-16-16-16-16---I
-----------------I-----------------I-----------------I-------------------------I
-----------------I-----------------I-----------------I-------------------------I
-----------------I-----------------I-----------------I-------------------------I


pre-verse riff
----------------I-----------------I-----------------I-----0---0---0---I
----------------I-----------------I---------------0-I---0-0-0-0-0-0---I
----------------I-----------------I-----------------I---------------0-I
9-9-9---9-9-9---I-9-9-9---9-9-9---I-9-9-9---9-9-9---I-9-9-9-9-9-9-9-0-I
9-9-9---9-9-9---I-9-9-9---9-9-9---I-9-9-9---9-9-9---I-9-9-9-9-9-9-9-0-I
7-7-7---7-7-7---I-7-7-7---7-7-7---I-7-7-7---7-7-7---I-7-7-7-7-7-7-7-0-I


---------------I-----------------I
---------------I-----------------I
-7--7--7-7-7-7-I-7-7-7-7-7-7-7-0-I
-7--7--7-7-7-7-I-7-7-7-7-7-7-7-0-I
-5--5--5-5-5-5-I-5-5-5-5-5-5-5-0-I
---------------I-----------------I


verse riff
I-----------------I-----------------I---------------I-----------------I
I-----------------I-----------------I---------------I-----------------I
I-----------------I-----------------I-7--7--7-7-7-7-I-7-7-7-7-7-7-7-0-I
I-9-9-9---9-9-9---I-9-9-9-9-9-9-9-0-I-7--7--7-7-7-7-I-7-7-7-7-7-7-7-0-I
I-9-9-9---9-9-9---I-9-9-9-9-9-9-9-0-I-5--5--5-5-5-5-I-5-5-5-5-5-5-5-0-I
I-7-7-7---7-7-7---I-7-7-7-7-7-7-7-0-I---------------I-----------------I



chours
----------------I-----------------I
----------------I-----------------I
----------------I-----------------I
-4-4-6-7--7-7-8-I-9-9-9-8-7-7-7-0-I
-4-4-6-7--7-7-8-I-9-9-9-8-7-7-7-0-I
-2-2-4-5--5-5-6-I-7-7-7-6-5-5-5-0-I


ascending riff 3
-----------------I-----------------I-----------------I-----------------I
-----------------I-----------------I-----------------I-----------------I
-3-3-3-3-3-3-3-3-I-3/4-4-4-4-4-4-4-I-4/5-5-5-5-5-5-5-I-5/6-6-6-6-6-6-6-I
-----------------I-----------------I-----------------I-----------------I
-----------------I-----------------I-----------------I-----------------I
-----------------I-----------------I-----------------I-----------------I

-----------------I-----------------I-----------------I-------------------------I
-----------------I-----------------I-----------------I-------------------------I
-6/7-7-7-7-7-7-7-I-7/8-8-8-8-8-8-8-I-8/9-9-9-9-9-9-9-I-9/10-10-10-10-10-10-10--I
-----------------I-----------------I-----------------I-------------------------I
-----------------I-----------------I-----------------I-------------------------I
-----------------I-----------------I-----------------I-------------------------I

-----------------------I------------------------I------------------------I/18-18-18-18-18-18-18--I
-----------------------I------------------------I------------------------I/17-17-17-17-17-17-17-0I
10/11-11-11-11-11-11-11I-11/12-12-12-12-12-12-12I-12/13-13-13-13-13-13-13I/16-16-16-16-16-16-16=0I
-----------------------I------------------------I------------------------I-----------------------I
-----------------------I------------------------I------------------------I-----------------------I
-----------------------I------------------------I------------------------I-----------------------I


ascending riff 4
-----------------I-----------------I-----------------I-----------------I
-----------------I-----------------I-----------------I-----------------I
-3-3-3-3-3-3-3-3-I-3/4-4-4-4-4-4-4-I-4/5-5-5-5-5-5-5-I-5/6-6-6-6-6-6-6-I
-----------------I-----------------I-----------------I-----------------I
-----------------I-----------------I-----------------I-----------------I
-----------------I-----------------I-----------------I-----------------I

-----------------I-----------------I-----------------I-------------------------I
-----------------I-----------------I-----------------I-------------------------I
-6/7-7-7-7-7-7-7-I-7/8-8-8-8-8-8-8-I-8/9-9-9-9-9-9-9-I-------------------------I
-----------------I-----------------I-----------------I-------------------------I
-----------------I-----------------I-----------------I-------------------------I
-----------------I-----------------I-----------------I-------------------------I
This is 100% correct..

(p/m) - palm mute

Intro

e-------------------------------------------
B-------------------------------------------
G-------------------------------------------
D-----5-4----------5-4----------------------
A--4--3-2--7----4--3-2--7-------------------
E--2-------5----2-------5-------------------

Drum and Bass enter here

(Distortion)

e-------------------------------------------
B-------------------------------------------
G---3-4-5-6-7-8-9-10------------------------
D-------------------------------------------
A-------------------------------------------
E-------------------------------------------

e-------------------------------------------
B-------------------------------------------
G-------------------------------------------
D-----5-4-----------------------------------
A--4--3-2--7--------------------------------
E--2-------5-------------------------------- (8x)

e-------------------------------------------
B-------------------------------------------
G---3-4-5-6-7-8-9-10------------------------
D-------------------------------------------
A-------------------------------------------
E-------------------------------------------

e-------------------------------------------
B-------------------------------------------
G-------------------------------------------
D---------------7---------------------------
A---------5-----5---------------------------
E---(p/m)-7--------------------------------- (6x)

(Chorus)

e-------------------------------------------
B-------------------------------------------
G-------------------------------------------
D-------------------------------------------
A--4--7—-8-9-7------------------------------
E--2--5—-6-7-5------------------------------ (8x)
|_|
slide

e-------------------------------------------
B-------------------------------------------
G-------------------------------------------
D---------------7---------------------------
A---------5-----5---------------------------
E---(p/m)-7--------------------------------- (6x)

(Chorus)

e-------------------------------------------
B-------------------------------------------
G-------------------------------------------
D------------------------------------------
A--4--7—-8-9-7-------------------------------
E--2--5—-6-7-5-------------------------------- (8x)
|_|
slide


e-------------------------------------------
B-------------------------------------------
G---3-4-5-6-7-8-9-10------------------------
D-------------------------------------------
A-------------------------------------------
E-------------------------------------------

e-------------------------------------------
B-------------------------------------------
G-------------------------------------------
D-----5-4-----------------------------------
A--4--3-2--7--------------------------------
E--2-------5-------------------------------- (10x)

e-------------------------------------------
B-------------------------------------------
G---3-4-5-6-7-8-9-10-13---------------------
D-------------------------------------------
A-------------------------------------------
E-------------------------------------------

*Note: slide to last note from 10 and bend note.
Aneurysm
Kurt Cobain

Intro:
Clean
E|----------------------
B|----------------------
G|----------------------
D|------5555-444-2-2222-
A|-4-44-3333-222-0-0000-
E|-2-22-----------------

Distortion
E|----------------------------------------------------------------
B|----------------------------------------------------------------
G|-33333333444444445555555566667777888899991010101011111111/5/13/-
D|----------------------------------------------------------------
A|----------------------------------------------------------------
E|----------------------------------------------------------------

E|----------------------
B|------5555-444--------
G|------5555-444-2-2222-
D|-4-44-5555-444-2-2222-
A|-4-44-3333-222-0-0000-
E|-2-22-----------------

E|----------------------------------------------------------------
B|----------------------------------------------------------------
G|-33333333444444445555555566667777888899991010101011111111/5/13/-
D|----------------------------------------------------------------
A|----------------------------------------------------------------
E|----------------------------------------------------------------

Verse:
Clean Distortion
E|---------------------|------------------
B|---------------------|-7777777777777777-
G|------------------99-|-7777777777777777-
D|----9----9----9---99-|-7777777777777777-
A|-9999-9999-9999-9999-|-5555555555555555-
E|-7777-7777-7777-7777-|------------------

Chorus:
Distortion
E|---------------------
B|---------------------
G|---------------------
D|-44-6-7-777-8-99-8-7-
A|-44-6-7-777-8-99-8-7-
E|-22-4-5-555-6-77-6-5-

Outro:
Distortion
E|----------------------------------------------------------------
B|----------------------------------------------------------------
G|-33333333444444445555555566667777888899991010101011111111/5/13/-
D|----------------------------------------------------------------
A|----------------------------------------------------------------
E|----------------------------------------------------------------

E|----------------------
B|------5555-444--------
G|------5555-444-2-2222-
D|-4-44-5555-444-2-2222-
A|-4-44-3333-222-0-0000-
E|-2-22-----------------

E|---------------------
B|---------------------
G|------5555-4444-2222-
D|-4444----------------
A|---------------------
E|---------------------
Press lightly
E|---------------------------------------------------------|---------------
B|---------------------------------------------------------|---------------
G|-33333333444444445555555566667777888899991010101011111111|141517192021**-
D|---------------------------------------------------------|---------------
A|---------------------------------------------------------|---------------
E|---------------------------------------------------------|---------------

*=press on the string off of the fret board and closer to the pick ups
-----------------------------------------------------------------------------
Aneurysm - Incesticide
-----------------------------------------------------------------------------
Tabber: skatersic666
E-MAIL: totalrock2003@yahoo.com

Tuning: Normal (E A D G B e)


[::INTRO::]
F# C5 B5 A5

e|--------------------------------------|\
B|-------------5---------4--------------| \
G|---------5---5-5---4---4-4---2---2-2--| \
D|-4-4-0---5-5---5---4-4---4---2-2-2-2--| \
A|-4-4-0---3-3---3---2-2---2---0-0---0--| \
E|-2---0--------------------------------| \
|| F# C5 B5 A5 \ Clean Tone
|| /
e|--------------------------------------| /
B|-------------5---------4--------------| /
G|---------5---5-5---4---4-4---2---2-2--| /
D|-4-4-0---5-5---5---4-4---4---2-2-2-2--| /
A|-4-4-0---3-3---3---2-2---2---0-0---0--| /
E|-2---0--------------------------------|/


||Dist On
||N.C
||
e|-----------------------------------------------------------------|
B|-----------------------------------------------------------------|
G|-3-3-3-3-3-3-3-3/4-4-4-4-4-4-4-4/5-5-5-5-5-5-5-5/6-6-6-6-6-6-6-6/|
D|-----------------------------------------------------------------|
A|-----------------------------------------------------------------|
E|-----------------------------------------------------------------|
|| ||
|| ||
|| ||
e|-----------------------------------------------------------------|
B|---------------------------------------------------------0-------|
G|7-7-7-7/8-8/9-9/10-10/11-11/12-12/13/14/15/16/17/18/19/--0-------|
D|---------------------------------------------------------0-------|
A|---------------------------------------------------------0-------|
E|-----------------------------------------------------------------|


F#5 C5 B5 A5 F#5 C5 B5 A5
e|-----------------------------------|-----------------------------------|
B|-----------------------------------|-----------------------------------|
G|---------5-5-5-0--4-4-4-0--2-2-2-0-|---------5-5-5-0--4-4-4-0--2-2-2-0-|
D|-4--4-0--5-5-5-0--4-4-4-0--2-2-2-0-|-4--4-0--5-5-5-0--4-4-4-0--2-2-2-0-|
A|-4--4-0--3-3-3-0--2-2-2-0--0-0-0-0-|-4--4-0--3-3-3-0--2-2-2-0--0-0-0-0-|
E|-2--2-0----------------------------|-2--2-0----------------------------|
|| ||
|| F#5 C5 B5 A5 F#5 C5 B5 A5 ||
e|-----------------------------------|-----------------------------------|
B|-----------------------------------|-----------------------------------|
G|---------5-5-5-0--4-4-4-0--2-2-2-0-|---------5-5-5-0--4-4-4-0--2-2-2-0-|
D|-4--4-0--5-5-5-0--4-4-4-0--2-2-2-0-|-4--4-0--5-5-5-0--4-4-4-0--2-2-2-0-|
A|-4--4-0--3-3-3-0--2-2-2-0--0-0-0-0-|-4--4-0--3-3-3-0--2-2-2-0--0-0-0-0-|
E|-2--2-0----------------------------|-2--2-0----------------------------|
|| ||
|| F#5 C5 B5 A5 F#5 C5 B5 A5 ||
e|-----------------------------------|-----------------------------------|
B|-----------------------------------|-----------------------------------|
G|---------5-5-5-0--4-4-4-0--2-2-2-0-|---------5-5-5-0--4-4-4-0--2-2-2-0-|
D|-4--4-0--5-5-5-0--4-4-4-0--2-2-2-0-|-4--4-0--5-5-5-0--4-4-4-0--2-2-2-0-|
A|-4--4-0--3-3-3-0--2-2-2-0--0-0-0-0-|-4--4-0--3-3-3-0--2-2-2-0--0-0-0-0-|
E|-2--2-0----------------------------|-2--2-0----------------------------|
|| ||
|| F#5 C5 B5 A5 F#5 C5 B5 A5 ||
e|-----------------------------------|-----------------------------------|
B|-----------------------------------|-----------------------------------|
G|---------5-5-5-0--4-4-4-0--2-2-2-0-|---------5-5-5-0--4-4-4-0--2-2-2-0-|
D|-4--4-0--5-5-5-0--4-4-4-0--2-2-2-0-|-4--4-0--5-5-5-0--4-4-4-0--2-2-2-0-|
A|-4--4-0--3-3-3-0--2-2-2-0--0-0-0-0-|-4--4-0--3-3-3-0--2-2-2-0--0-0-0-0-|
E|-2--2-0----------------------------|-2--2-0----------------------------|


N.C
e|-----------------------------------------------------------------|
B|-----------------------------------------------------------------|
G|-3-3-3-3-3-3-3-3/4-4-4-4-4-4-4-4/5-5-5-5-5-5-5-5/6-6-6-6-6-6-6-6/|
D|-----------------------------------------------------------------|
A|-----------------------------------------------------------------|
E|-----------------------------------------------------------------|
|| ||
|| ||
e|-------------------------------------------------15-15-15-15-15--|
B|-------------------------------------------------14-14-14-14-14--|
G|7-7-7-7-7-7-7-7/8-8-8-8-8-8-8-8/9-9-9-9-9-9-9-9--13-13-13-13-13--|
D|-----------------------------------------------------------------|
A|-----------------------------------------------------------------|
E|-----------------------------------------------------------------|
|| ||
|| ||
e|-15-15-15-0---|
B|-14-14-14-0---|
G|-13-13-13-0---|
D|--------------|
A|--------------|
E|--------------|


||Dist Off
|| B5
||
e|---------------------------------------------------------------|
B|---------------------------------------------------------------|
G|---------------------------------------------------------------|
D|-9-9-9-9--9-9-9-9--9-9-9-9--9-9-9-9--9-9-9-9--9-9-9-9--9-9-9-9-|
A|-9-9-9-9--9-9-9-9--9-9-9-9--9-9-9-9--9-9-9-9--9-9-9-9--9-9-9-9-|
E|-7-7-7-7--7-7-7-7--7-7-7-7--7-7-7-7--7-7-7-7--7-7-7-7--7-7-7-7-|
|| Dist On ||
|| D5 ||
|| ||
e|-0-0-0-0-------------------------------------------------------|
B|-0-0-0-0-------------------------------------------------------|
G|-------0---------7--7---7-7-7-7---7-7-7-7---7-7-7-0------------|
D|-9-9-9-0---------7--7---7-7-7-7---7-7-7-7---7-7-7-0------------|
A|-9-9-9-0---------5--5---5-5-5-5---5-5-5-5---5-5-5-0------------|
E|-7-7-7---------------------------------------------------------|


||Dist Off Dist On
|| B5 D5
||
e|--------------------------------0-0----------------------------|
B|--------------------------------0-0----------------------------|
G|----------------------------------0---------7--7---7-7-7-7-----|
D|-9-9-9-9--9-9-9-9--9-9-9-9--9-9-9-0---------7--7---7-7-7-7-----|
A|-9-9-9-9--9-9-9-9--9-9-9-9--9-9-9-0---------5--5---5-5-5-5-----|
E|-7-7-7-7--7-7-7-7--7-7-7-7--7-7-7------------------------------|
|| ||
|| ||
|| ||
e|-----------------------|
B|-----------------------|
G|-7-7-7-7---7-7-7-0-----|
D|-7-7-7-7---7-7-7-0-----|
A|-5-5-5-5---5-5-5-0-----|
E|-----------------------|



[::VERSE ONE::]


||Dist Off Dist On
|| B5 D5
|| Come on over (and) do the twist Arh-
e|-----------------------------------0-----|----------------------|
B|-----------------------------------0-0---|----------------------|
G|-------------------------------------0---|-7--7---7-7-7-7---7-7-|
D|-9-9-9-9---9-9-9-9---9-9-9-9---9-9-9-0---|-7--7---7-7-7-7---7-7-|
A|-9-9-9-9---9-9-9-9---9-9-9-9---9-9-9-0---|-5--5---5-5-5-5---5-5-|
E|-7-7-7-7---7-7-7-7---7-7-7-7---7-7-7-----|----------------------|
|| ||
|| ||
||-hhhhhhaaaaaaa ||
e|----------------|
B|----------------|
G|-7-7---7-7-7-0--|
D|-7-7---7-7-7-0--|
A|-5-5---5-5-5-0--|
E|----------------|


||Dist Off Dist On
|| B5 D5
|| Over do it__ and have a fit Arh-
e|-----------------------------------0-----|----------------------|
B|-----------------------------------0-0---|----------------------|
G|-------------------------------------0---|-7--7---7-7-7-7---7-7-|
D|-9-9-9-9---9-9-9-9---9-9-9-9---9-9-9-0---|-7--7---7-7-7-7---7-7-|
A|-9-9-9-9---9-9-9-9---9-9-9-9---9-9-9-0---|-5--5---5-5-5-5---5-5-|
E|-7-7-7-7---7-7-7-7---7-7-7-7---7-7-7-----|----------------------|
|| ||
|| ||
||-hhhhhhaaaaaaa ||
e|----------------|
B|----------------|
G|-7-7---7-7-7-0--|
D|-7-7---7-7-7-0--|
A|-5-5---5-5-5-0--|
E|----------------|


||Dist Off Dist On
|| B5 D5
|| Love you so much it makes me sick Arh-
e|-----------------------------------0-----|----------------------|
B|-----------------------------------0-0---|----------------------|
G|-------------------------------------0---|-7--7---7-7-7-7---7-7-|
D|-9-9-9-9---9-9-9-9---9-9-9-9---9-9-9-0---|-7--7---7-7-7-7---7-7-|
A|-9-9-9-9---9-9-9-9---9-9-9-9---9-9-9-0---|-5--5---5-5-5-5---5-5-|
E|-7-7-7-7---7-7-7-7---7-7-7-7---7-7-7-----|----------------------|
|| ||
|| ||
||-hhhhhhaaaaaaa ||
e|----------------|
B|----------------|
G|-7-7---7-7-7-0--|
D|-7-7---7-7-7-0--|
A|-5-5---5-5-5-0--|
E|----------------|



||Dist Off Dist On
|| B5 D5
|| Come on over (and) do the twist Arh-
e|-----------------------------------0-----|----------------------|
B|-----------------------------------0-0---|----------------------|
G|-------------------------------------0---|-7--7---7-7-7-7---7-7-|
D|-9-9-9-9---9-9-9-9---9-9-9-9---9-9-9-0---|-7--7---7-7-7-7---7-7-|
A|-9-9-9-9---9-9-9-9---9-9-9-9---9-9-9-0---|-5--5---5-5-5-5---5-5-|
E|-7-7-7-7---7-7-7-7---7-7-7-7---7-7-7-----|----------------------|
|| ||
|| ||
||-hhhhhhaaaaaaa ||
e|----------------|
B|----------------|
G|-7-7---7-7-7-0--|
D|-7-7---7-7-7-0--|
A|-5-5---5-5-5-0--|
E|----------------|



[::CHORUS ONE::]

|| ||
|| F# G# A Bb B Bb A ||
|| Beat me outtta me ||
e|---------------------------------------|
B|---------------------------------------|
G|---------------------------------------|
D|-4-4--6--7---7-8---9-9-9--8--7-7-7-0---|
A|-4-4--6--7---7-8---9-9-9--8--7-7-7-0---|
E|-2-2--4--5---5-6---7-7-7--6--5-5-5-0---|
|| ||
|| F# G# A Bb B Bb A ||
|| Beat me outtta me ||
e|---------------------------------------|
B|---------------------------------------|
G|---------------------------------------|
D|-4-4--6--7---7-8---9-9-9--8--7-7-7-0---|
A|-4-4--6--7---7-8---9-9-9--8--7-7-7-0---|
E|-2-2--4--5---5-6---7-7-7--6--5-5-5-0---|
|| ||
|| F# G# A Bb B Bb A ||
|| Beat me outtta me ||
e|---------------------------------------|
B|---------------------------------------|
G|---------------------------------------|
D|-4-4--6--7---7-8---9-9-9--8--7-7-7-0---|
A|-4-4--6--7---7-8---9-9-9--8--7-7-7-0---|
E|-2-2--4--5---5-6---7-7-7--6--5-5-5-0---|
|| ||
|| F# G# A Bb B Bb A ||
|| Beat me outtta me ||
e|---------------------------------------|
B|---------------------------------------|
G|---------------------------------------|
D|-4-4--6--7---7-8---9-9-9--8--7-7-7-0---|
A|-4-4--6--7---7-8---9-9-9--8--7-7-7-0---|
E|-2-2--4--5---5-6---7-7-7--6--5-5-5-0---|
|| ||
|| F# G# A Bb B Bb A ||
|| Beat me outtta me ||
e|---------------------------------------|
B|---------------------------------------|
G|---------------------------------------|
D|-4-4--6--7---7-8---9-9-9--8--7-7-7-0---|
A|-4-4--6--7---7-8---9-9-9--8--7-7-7-0---|
E|-2-2--4--5---5-6---7-7-7--6--5-5-5-0---|
|| ||
|| F# G# A Bb B Bb A ||
|| Beat me outtta me ||
e|---------------------------------------|
B|---------------------------------------|
G|---------------------------------------|
D|-4-4--6--7---7-8---9-9-9--8--7-7-7-0---|
A|-4-4--6--7---7-8---9-9-9--8--7-7-7-0---|
E|-2-2--4--5---5-6---7-7-7--6--5-5-5-0---|
|| ||
|| F# G# A Bb B Bb A ||
|| Beat me outtta me ||
e|---------------------------------------|
B|---------------------------------------|
G|---------------------------------------|
D|-4-4--6--7---7-8---9-9-9--8--7-7-7-0---|
A|-4-4--6--7---7-8---9-9-9--8--7-7-7-0---|
E|-2-2--4--5---5-6---7-7-7--6--5-5-5-0---|
|| ||
|| F# G# A Bb B Bb A ||
|| Beat me outta meea-||
e|---------------------------------------|
B|---------------------------------------|
G|---------------------------------------|
D|-4-4--6--7---7-8---9-9-9--8--7-7-7-0---|
A|-4-4--6--7---7-8---9-9-9--8--7-7-7-0---|
E|-2-2--4--5---5-6---7-7-7--6--5-5-5-0---|



[::VERSE TWO::]

||Dist Off Dist On
|| B5 D5
||aaah Come on over (and) do the twist Arh-
e|-----------------------------------0-----|----------------------|
B|-----------------------------------0-0---|----------------------|
G|-------------------------------------0---|-7--7---7-7-7-7---7-7-|
D|-9-9-9-9---9-9-9-9---9-9-9-9---9-9-9-0---|-7--7---7-7-7-7---7-7-|
A|-9-9-9-9---9-9-9-9---9-9-9-9---9-9-9-0---|-5--5---5-5-5-5---5-5-|
E|-7-7-7-7---7-7-7-7---7-7-7-7---7-7-7-----|----------------------|
|| ||
|| ||
||-hhhhhhaaaaaaa ||
e|----------------|
B|----------------|
G|-7-7---7-7-7-0--|
D|-7-7---7-7-7-0--|
A|-5-5---5-5-5-0--|
E|----------------|


||Dist Off Dist On
|| B5 D5
|| Over do it__ and have a fit Arh-
e|-----------------------------------0-----|----------------------|
B|-----------------------------------0-0---|----------------------|
G|-------------------------------------0---|-7--7---7-7-7-7---7-7-|
D|-9-9-9-9---9-9-9-9---9-9-9-9---9-9-9-0---|-7--7---7-7-7-7---7-7-|
A|-9-9-9-9---9-9-9-9---9-9-9-9---9-9-9-0---|-5--5---5-5-5-5---5-5-|
E|-7-7-7-7---7-7-7-7---7-7-7-7---7-7-7-----|----------------------|
|| ||
|| ||
||-hhhhhhaaaaaaa ||
e|----------------|
B|----------------|
G|-7-7---7-7-7-0--|
D|-7-7---7-7-7-0--|
A|-5-5---5-5-5-0--|
E|----------------|


||Dist Off Dist On
|| B5 D5
|| Love you so much it makes me sick Arh-
e|-----------------------------------0-----|----------------------|
B|-----------------------------------0-0---|----------------------|
G|-------------------------------------0---|-7--7---7-7-7-7---7-7-|
D|-9-9-9-9---9-9-9-9---9-9-9-9---9-9-9-0---|-7--7---7-7-7-7---7-7-|
A|-9-9-9-9---9-9-9-9---9-9-9-9---9-9-9-0---|-5--5---5-5-5-5---5-5-|
E|-7-7-7-7---7-7-7-7---7-7-7-7---7-7-7-----|----------------------|
|| ||
|| ||
||-hhhhhhaaaaaaa ||
e|----------------|
B|----------------|
G|-7-7---7-7-7-0--|
D|-7-7---7-7-7-0--|
A|-5-5---5-5-5-0--|
E|----------------|


||Dist Off Dist On
|| B5 D5
|| Come on over (and) shoot the shit Arh-
e|-----------------------------------0-----|----------------------|
B|-----------------------------------0-0---|----------------------|
G|-------------------------------------0---|-7--7---7-7-7-7---7-7-|
D|-9-9-9-9---9-9-9-9---9-9-9-9---9-9-9-0---|-7--7---7-7-7-7---7-7-|
A|-9-9-9-9---9-9-9-9---9-9-9-9---9-9-9-0---|-5--5---5-5-5-5---5-5-|
E|-7-7-7-7---7-7-7-7---7-7-7-7---7-7-7-----|----------------------|
|| ||
|| ||
||-hhhhhhaaaaaaa ||
e|----------------|
B|----------------|
G|-7-7---7-7-7-0--|
D|-7-7---7-7-7-0--|
A|-5-5---5-5-5-0--|
E|----------------|


[::CHOURS TWO::]

|| ||
|| F# G# A Bb B Bb A ||
|| Beat me outtta me ||
e|---------------------------------------|
B|---------------------------------------|
G|---------------------------------------|
D|-4-4--6--7---7-8---9-9-9--8--7-7-7-0---|
A|-4-4--6--7---7-8---9-9-9--8--7-7-7-0---|
E|-2-2--4--5---5-6---7-7-7--6--5-5-5-0---|
|| ||
|| F# G# A Bb B Bb A ||
|| Beat me outtta me ||
e|---------------------------------------|
B|---------------------------------------|
G|---------------------------------------|
D|-4-4--6--7---7-8---9-9-9--8--7-7-7-0---|
A|-4-4--6--7---7-8---9-9-9--8--7-7-7-0---|
E|-2-2--4--5---5-6---7-7-7--6--5-5-5-0---|
|| ||
|| F# G# A Bb B Bb A ||
|| Beat me outtta me ||
e|---------------------------------------|
B|---------------------------------------|
G|---------------------------------------|
D|-4-4--6--7---7-8---9-9-9--8--7-7-7-0---|
A|-4-4--6--7---7-8---9-9-9--8--7-7-7-0---|
E|-2-2--4--5---5-6---7-7-7--6--5-5-5-0---|
|| ||
|| F# G# A Bb B Bb A ||
|| Beat me outtta me ||
e|---------------------------------------|
B|---------------------------------------|
G|---------------------------------------|
D|-4-4--6--7---7-8---9-9-9--8--7-7-7-0---|
A|-4-4--6--7---7-8---9-9-9--8--7-7-7-0---|
E|-2-2--4--5---5-6---7-7-7--6--5-5-5-0---|
|| ||
|| F# G# A Bb B Bb A ||
|| Beat me outtta me ||
e|---------------------------------------|
B|---------------------------------------|
G|---------------------------------------|
D|-4-4--6--7---7-8---9-9-9--8--7-7-7-0---|
A|-4-4--6--7---7-8---9-9-9--8--7-7-7-0---|
E|-2-2--4--5---5-6---7-7-7--6--5-5-5-0---|
|| ||
|| F# G# A Bb B Bb A ||
|| Beat me outtta me ||
e|---------------------------------------|
B|---------------------------------------|
G|---------------------------------------|
D|-4-4--6--7---7-8---9-9-9--8--7-7-7-0---|
A|-4-4--6--7---7-8---9-9-9--8--7-7-7-0---|
E|-2-2--4--5---5-6---7-7-7--6--5-5-5-0---|
|| ||
|| F# G# A Bb B Bb A ||
|| Beat me outtta me ||
e|---------------------------------------|
B|---------------------------------------|
G|---------------------------------------|
D|-4-4--6--7---7-8---9-9-9--8--7-7-7-0---|
A|-4-4--6--7---7-8---9-9-9--8--7-7-7-0---|
E|-2-2--4--5---5-6---7-7-7--6--5-5-5-0---|
|| ||
|| F# G# A Bb B Bb A ||
|| Beat me outtta mea-||
e|---------------------------------------|
B|---------------------------------------|
G|---------------------------------------|
D|-4-4--6--7---7-8---9-9-9--8--7-7-7-0---|
A|-4-4--6--7---7-8---9-9-9--8--7-7-7-0---|
E|-2-2--4--5---5-6---7-7-7--6--5-5-5-0---|


[::BRIDGE::]

|| ||
||N.C ||
||aaah ||
e|-----------------------------------------------------------------|
B|-----------------------------------------------------------------|
G|-3-3-3-3-3-3-3-3/4-4-4-4-4-4-4-4/5-5-5-5-5-5-5-5/6-6-6-6-6-6-6-6/|
D|-----------------------------------------------------------------|
A|-----------------------------------------------------------------|
E|-----------------------------------------------------------------|
|| ||
|| ||
|| ||
e|-----------------------------------------------------------------|
B|-----------------------------------------------------------------|
G|7-7-7-7-7-7-7-7/8-8-8-8-8-8-8-8/9-9-9-9-9-9-9-9/10-10-10-10-10-10|
D|-----------------------------------------------------------------|
A|-----------------------------------------------------------------|
E|-----------------------------------------------------------------|
|| ||
|| ||
|| ||
e|-----------------------------------------------------------------|
B|-----------------------------------------------------------------|
G|10-10/11-11-11-11-11-11-11-11/12-12-12-12-12-12-12-12/13-13-13-13|
D|-----------------------------------------------------------------|
A|-----------------------------------------------------------------|
E|-----------------------------------------------------------------|
|| ||
|| ||
||Aaaaaaaarrrrrrrhhhhhhhhhhhhhhhh|
e|--------15-15-15-15-15-15-15--0|
B|--------14-14-14-14-14-14-14--0|
G|13-13---13-13-13-13-13-13-13--0|
D|------------------------------0|
A|-------------------------------|
E|-------------------------------|


|| ||
|| F#5 C5 B5 A5 F#5 C5 B5 A5 ||
||hhhhhhhhhhhhhhhhhhhhhhhhhhhhhhhhhhhhhhhhhhhhhhhhhhhhh! ||
e|-----------------------------------|-----------------------------------|
B|-----------------------------------|-----------------------------------|
G|---------5-5-5-0--4-4-4-0--2-2-2-0-|---------5-5-5-0--4-4-4-0--2-2-2-0-|
D|-4--4-0--5-5-5-0--4-4-4-0--2-2-2-0-|-4--4-0--5-5-5-0--4-4-4-0--2-2-2-0-|
A|-4--4-0--3-3-3-0--2-2-2-0--0-0-0-0-|-4--4-0--3-3-3-0--2-2-2-0--0-0-0-0-|
E|-2--2-0----------------------------|-2--2-0----------------------------|
|| ||
|| F#5 C5 B5 A5 ||
|| She keeps it pumping straigt to my heart
e|----------------------------------------------|
B|----------------------------------------------|
G|---------5--5--5--0---4--4--4--0---2--2--2--0-|
D|-4--4-0--5--5--5--0---4--4--4--0---2--2--2--0-|
A|-4--4-0--3--3--3--0---2--2--2--0---0--0--0--0-|
E|-2--2-0---------------------------------------|
|| ||
|| F#5 C5 B5 A5 ||
|| She keeps it pumping straigt to my heart
e|----------------------------------------------|
B|----------------------------------------------|
G|---------5--5--5--0---4--4--4--0---2--2--2--0-|
D|-4--4-0--5--5--5--0---4--4--4--0---2--2--2--0-|
A|-4--4-0--3--3--3--0---2--2--2--0---0--0--0--0-|
E|-2--2-0---------------------------------------|
|| ||
|| F#5 C5 B5 A5 ||
|| She keeps it pumping straigt to my heart
e|----------------------------------------------|
B|----------------------------------------------|
G|---------5--5--5--0---4--4--4--0---2--2--2--0-|
D|-4--4-0--5--5--5--0---4--4--4--0---2--2--2--0-|
A|-4--4-0--3--3--3--0---2--2--2--0---0--0--0--0-|
E|-2--2-0---------------------------------------|
|| ||
|| F#5 C5 B5 A5 ||
|| She keeps it pumping straigt to my heart
e|----------------------------------------------|
B|----------------------------------------------|
G|---------5--5--5--0---4--4--4--0---2--2--2--0-|
D|-4--4-0--5--5--5--0---4--4--4--0---2--2--2--0-|
A|-4--4-0--3--3--3--0---2--2--2--0---0--0--0--0-|
E|-2--2-0---------------------------------------|
|| ||
|| F#5 C5 B5 A5 ||
|| She keeps it pumping straigt to my heart
e|----------------------------------------------|
B|----------------------------------------------|
G|---------5--5--5--0---4--4--4--0---2--2--2--0-|
D|-4--4-0--5--5--5--0---4--4--4--0---2--2--2--0-|
A|-4--4-0--3--3--3--0---2--2--2--0---0--0--0--0-|
E|-2--2-0---------------------------------------|
|| ||
|| F#5 C5 B5 A5 ||
|| She keeps it pumping straigt to my heart
e|----------------------------------------------|
B|----------------------------------------------|
G|---------5--5--5--0---4--4--4--0---2--2--2--0-|
D|-4--4-0--5--5--5--0---4--4--4--0---2--2--2--0-|
A|-4--4-0--3--3--3--0---2--2--2--0---0--0--0--0-|
E|-2--2-0---------------------------------------|
|| ||
|| F#5 C5 B5 A5 ||
|| She keeps it pumping straigt to my heart
e|----------------------------------------------|
B|----------------------------------------------|
G|---------5--5--5--0---4--4--4--0---2--2--2--0-|
D|-4--4-0--5--5--5--0---4--4--4--0---2--2--2--0-|
A|-4--4-0--3--3--3--0---2--2--2--0---0--0--0--0-|
E|-2--2-0---------------------------------------|
|| ||
|| F#5 C5 B5 A5 ||
|| She keeps it pumping straigt to my heart__
e|----------------------------------------------|
B|----------------------------------------------|
G|---------5--5--5--0---4--4--4--0---2--2--2--0-|
D|-4--4-0--5--5--5--0---4--4--4--0---2--2--2--0-|
A|-4--4-0--3--3--3--0---2--2--2--0---0--0--0--0-|
E|-2--2-0---------------------------------------|


[::OUTRO::]

||
||N.C
||______
e|-----------------------------------------------------------------|
B|-----------------------------------------------------------------|
G|-3-3-3-3-3-3-3-3/4-4-4-4-4-4-4-4/5-5-5-5-5-5-5-5/6-6-6-6-6-6-6-6/|
D|-----------------------------------------------------------------|
A|-----------------------------------------------------------------|
E|-----------------------------------------------------------------|
|| ||
|| ||
|| ||
e|-----------------------------------------------------------------|
B|-----------------------------------------------------------------|
G|7-7-7-7-7-7-7-7/8-8-8-8-8-8-8-8/9-9-9-9-9-9-9-9/10-10-10-10-10-10|
D|-----------------------------------------------------------------|
A|-----------------------------------------------------------------|
E|-----------------------------------------------------------------|
|| Bit of feedback from dist and guitar ||
|| | ||
|| V ||
e|-----------------------------------------------------------------|
B|-----------------------------------------------------------------|
G|10-10//12---12---12---12---12---12---12---12~~~~~~~~~~~~~~~~~~~~~|
D|-----------------------------------------------------------------|
A|-----------------------------------------------------------------|
E|-----------------------------------------------------------------|


Finish from noise of feedback and strings agaist fretboard




26/12/04 - made lyric corrections pointed out by Steven Harris

Any tab requests/queries/corrections or questions send all mail to:
totalrock2003@yahoo.com

-----------------------------------------------------------------------------
Key
-----------------------------------------------------------------------------
| / slide up
| \ slide down
| h hammer-on
| p pull-off
| ~ vibrato
| + harmonic
| x Mute note
Song info
Aneurysm
Nirvana
2001
  • Rock
  • Alternative Rock
  • Grunge
Alternative tracks
Similar songs
Somebody Told Me - The Killers
Disciplined Breakdown - Collective Soul
Wishlist - Pearl Jam
This Is The Day - The The

Hi! Hope you enjoy backing track experience.
If you want to help us in the development of the project, feel free to donate!