I Hate Myself And Want To Die - Nirvana
00:00 / 00:00
Tabs and lyrics
Tunning: Drop D (D A D G B E)
CHORDS: [Drop-D tuning]

DADGBE
C5 (x355xx)
E5 (222xxx)
Eb5 (111xxx)
G5 (555xxx)
Bb5 (x133xx)
B5 (x244xx)


[MAIN-RIFF]

C5 E5 Eb5 E5
E|---------------------|
B|---------------------|
G|---5--5-5------------|
D|---5--5-5---2-2-1-2--|
A|---3--3-3---2-2-1-2--|
D|------------2-2-1-2--|


[INTRO]

Play MAIN-RIFF 4 times.


[VERSE 1] [play MAIN-RIFF]

Running nose and runny yolk
Even if you have a cold still
You can cough on me again
I still haven't had my fulfill


[CHORUS]

G5 Bb5 G5 Bb5
In the someday
G5 Bb5
What's that sound
G5 Bb5
In the someday
G5 Bb5
What's that song
G5 Bb5
In the someday
G5 Bb5
What's that sound
G5 Bb5
In the someday
G5 Bb5 B5 <-Just strum the B5 once then go
What's that song straight back to the MAIN-RIFF.


[VERSE 2] [play MAIN-RIFF]

Broken heart and broken bones
Finger plaster-cast of the horse pills
One more quirky cliched phrase
You're the one I wanna refill


REPEAT CHORUS


[GUITAR-SOLO]

This may not be a 100 % accurate but who cares!

E|------------------------------------------------------------|
B|------------------------------------------------------------|
G|------------------------------------------------------------|
D|-----------------5--4--3--2--------3-2-0-2------------------|
A|--------2--3--5-----------------------------1--0------------|
D|--2--5--------------------------------------------5--3--2---|


[Here's what he's saying
behind the solo:]

Words are broken lives
Five pieces of board, turned around
attached to the skull by common wood screws
A child would like to do it


REPEAT CHORUS

REPEAT VERSE 1

REPEAT CHORUS

End by playing MAIN-RIFF once.
Tunning: Standard (E A D G B e)
D#||----------------------|--------------------------|
A#||----------------------|--------------1----1------|
F#||----------5----5------|--------------0----0------|
C#||----------5----5--0-0-|--2--2--1--2----------0-0-|
G#||----------3----3--0-0-|--2--2--1--2--3----3--0-0-|
C#||------------------0-0-|--2--2--1--2----------0-0-|



--------------------------|--------------------------|
--------------1----1------|--------------1----1------|
--------------0----0------|--------------0----0------|
--2--2--1--2----------0-0-|--2--2--1--2----------0-0-|
--2--2--1--2--3----3--0-0-|--2--2--1--2--3----3--0-0-|
--2--2--1--2----------0-0-|--2--2--1--2----------0-0-|



--------------------------|--------------------------|
--------------1----1------|--------------1----1------|
--------------0----0------|--------------0----0------|
--2--2--1--2----------0-0-|--2--2--1--2----------0-0-|
--2--2--1--2--3----3--0-0-|--2--2--1--2--3----3--0-0-|
--2--2--1--2----------0-0-|--2--2--1--2----------0-0-|



--------------------------|--------------------------|
--------------1----1------|--------------1----1------|
--------------0----0------|--------------0----0------|
--2--2--1--2----------0-0-|--2--2--1--2----------0-0-|
--2--2--1--2--3----3--0-0-|--2--2--1--2--3----3--0-0-|
--2--2--1--2----------0-0-|--2--2--1--2----------0-0-|



--------------------------|--------------------------|
--------------1----1------|--------------1----1------|
--------------0----0------|--------------0----0------|
--2--2--1--2----------0-0-|--2--2--1--2----------0-0-|
--2--2--1--2--3----3--0-0-|--2--2--1--2--3----3--0-0-|
--2--2--1--2----------0-0-|--2--2--1--2----------0-0-|



--------------------------|--------------------------|-------------------------|
--------------1----1------|--------------1----1------|-------------------------|
--------------0----0------|--------------0----0------|--------------0----0--0--|
--2--2--1--2----------0-0-|--2--2--1--2----------0-0-|--2--2--1--2--0----0--0--|
--2--2--1--2--3----3--0-0-|--2--2--1--2--3----3--0-0-|--2--2--1--2-------------|
--2--2--1--2----------0-0-|--2--2--1--2----------0-0-|--2--2--1--2--5----5--5--|



-------------------------|-------------------------|-------------------------|
-------------------------|-------------------------|-------------------------|
--3--3--3--3--0----0--0--|--3--3--3--3--0----0--0--|--3--3--3--3--0----0--0--|
--3--3--3--3--0----0--0--|--3--3--3--3--0----0--0--|--3--3--3--3--0----0--0--|
--1--1--1--1-------------|--1--1--1--1-------------|--1--1--1--1-------------|
--------------5----5--5--|--------------5----5--5--|--------------5----5--5--|



-------------------------|-------------------------|-------------------------|
-------------------------|-------------------------|-------------------------|
--3--3--3--3--0----0--0--|--3--3--3--3--0----0--0--|--3--3--3--3--0----0--0--|
--3--3--3--3--0----0--0--|--3--3--3--3--0----0--0--|--3--3--3--3--0----0--0--|
--1--1--1--1-------------|--1--1--1--1-------------|--1--1--1--1-------------|
--------------5----5--5--|--------------5----5--5--|--------------5----5--5--|



-------------------------|-------------------------|--------------------------|
-------------------------|-------------------------|--------------1----1------|
--3--3--3--3--0----0--0--|--3--3--3--3--0----0--0--|--3--3--3--3--0----0------|
--3--3--3--3--0----0--0--|--3--3--3--3--0----0--0--|--3--3--3--3----------0-0-|
--1--1--1--1-------------|--1--1--1--1-------------|--1--1--1--1--3----3--0-0-|
--------------5----5--5--|--------------5----5--5--|----------------------0-0-|



--------------------------|-------------------------|--------------------------|
--------------1----1------|-------------1----1------|--------------1----1------|
--------------0----0------|-------------0----0------|--------------0----0------|
--2--2--1--2----------0-0-|--2--2----2----------0-0-|--2--2--1--2----------0-0-|
--2--2--1--2--3----3--0-0-|--2--2----2--3----3--0-0-|--2--2--1--2--3----3--0-0-|
--2--2--1--2----------0-0-|--2--2----2----------0-0-|--2--2--1--2----------0-0-|



--------------------------|--------------------------|
--------------1----1------|--------------1----1------|
--------------0----0------|--------------0----0------|
--2--2--1--2----------0-0-|--2--2--1--2----------0-0-|
--2--2--1--2--3----3--0-0-|--2--2--1--2--3----3--0-0-|
--2--2--1--2----------0-0-|--2--2--1--2----------0-0-|



--------------------------|--------------------------|-------------------------|
--------------1----1------|--------------1----1------|-------------------------|
--------------0----0------|--------------0----0------|--------------0----0--0--|
--2--2--1--2----------0-0-|--2--2--1--2----------0-0-|--2--2--1--2--0----0--0--|
--2--2--1--2--3----3--0-0-|--2--2--1--2--3----3--0-0-|--2--2--1--2-------------|
--2--2--1--2----------0-0-|--2--2--1--2----------0-0-|--2--2--1--2--5----5--5--|



-------------------------|-------------------------|-------------------------|
-------------------------|-------------------------|-------------------------|
--3--3--3--3--0----0--0--|--3--3--3--3--0----0--0--|--3--3--3--3--0----0--0--|
--3--3--3--3--0----0--0--|--3--3--3--3--0----0--0--|--3--3--3--3--0----0--0--|
--1--1--1--1-------------|--1--1--1--1-------------|--1--1--1--1-------------|
--------------5----5--5--|--------------5----5--5--|--------------5----5--5--|



-------------------------|-------------------------|-------------------------|
-------------------------|-------------------------|-------------------------|
--3--3--3--3--0----0--0--|--3--3--3--3--0----0--0--|--3--3--3--3--0----0--0--|
--3--3--3--3--0----0--0--|--3--3--3--3--0----0--0--|--3--3--3--3--0----0--0--|
--1--1--1--1-------------|--1--1--1--1-------------|--1--1--1--1-------------|
--------------5----5--5--|--------------5----5--5--|--------------5----5--5--|



-------------------------|-------------------------|------------------------|
-------------------------|-------------------------|------------------------|
--3--3--3--3--0----0--0--|--3--3--3--3--0----0--0--|--3--3--3--3------------|
--3--3--3--3--0----0--0--|--3--3--3--3--0----0--0--|--3--3--3--3------------|
--1--1--1--1-------------|--1--1--1--1-------------|--1--1--1--1------------|
--------------5----5--5--|--------------5----5--5--|--------------0----5----|



----------------------|-----------------------|--------------------------|
----------------------|--------------------7--|--8--7----8--10----10--8b-|
-----------------0----|-----------------9-----|--------------------------|
------------0---------|--4----3----2----------|--------------------------|
--2----3--------------|-----------------------|--------------------------|
----------------------|-----------------------|--------------------------|



----------------------|------------------------|-----------------------|
--8----8--------------|------------------------|-----------------------|
----------------------|------------------------|-----------------8--9--|
----------------------|----------5--7--7b---5b-|-----------------------|
----------------8--7--|--5--7------------------|----9----7--5b---------|
----------------------|------------------------|-----------------------|



------------------------|----------------------|-------------------------|
------------------------|----------------------|-------------------------|
--8----8--9--8----8--9--|--8--------0----0--0--|--3--3--3--3--0----0--0--|
------------------------|-----------0----0--0--|--3--3--3--3--0----0--0--|
------------------------|----------------------|--1--1--1--1-------------|
------------------------|-----------5----5--5--|--------------5----5--5--|



-------------------------|-------------------------|-------------------------|
-------------------------|-------------------------|-------------------------|
--3--3--3--3--0----0--0--|--3--3--3--3--0----0--0--|--3--3--3--3--0----0--0--|
--3--3--3--3--0----0--0--|--3--3--3--3--0----0--0--|--3--3--3--3--0----0--0--|
--1--1--1--1-------------|--1--1--1--1-------------|--1--1--1--1-------------|
--------------5----5--5--|--------------5----5--5--|--------------5----5--5--|



-------------------------|-------------------------|------------------------|
-------------------------|-------------------------|------------------------|
--3--3--3--3--0----0--0--|--3--3--3--3--0----0--0--|--3--3--3--3--0----0----|
--3--3--3--3--0----0--0--|--3--3--3--3--0----0--0--|--3--3--3--3--0----0----|
--1--1--1--1-------------|--1--1--1--1-------------|--1--1--1--1------------|
--------------5----5--5--|--------------5----5--5--|--------------5----5----|



-------------------------|--------------------------|--------------------------|
-------------------------|--------------1----1------|--------------1----1------|
--3--3--3--3--0----0--0--|--3--3--3--3--0----0------|--------------0----0------|
--3--3--3--3--0----0--0--|--3--3--3--3----------0-0-|--2--2--1--2----------0-0-|
--1--1--1--1-------------|--1--1--1--1--3----3--0-0-|--2--2--1--2--3----3--0-0-|
--------------5----5--5--|----------------------0-0-|--2--2--1--2----------0-0-|



--------------------------|--------------------------|
--------------1----1------|--------------1----1------|
--------------0----0------|--------------0----0------|
--2--2--1--2----------0-0-|--2--2--1--2----------0-0-|
--2--2--1--2--3----3--0-0-|--2--2--1--2--3----3--0-0-|
--2--2--1--2----------0-0-|--2--2--1--2----------0-0-|



--------------------------|--------------------------|
--------------1----1------|--------------1----1------|
--------------0----0------|--------------0----0------|
--2--2--1--2----------0-0-|--2--2--1--2----------0-0-|
--2--2--1--2--3----3--0-0-|--2--2--1--2--3----3--0-0-|
--2--2--1--2----------0-0-|--2--2--1--2----------0-0-|



--------------------------|--------------------------|-------------------------|
--------------1----1------|--------------1----1------|-------------------------|
--------------0----0------|--------------0----0------|--------------0----0--0--|
--2--2--1--2----------0-0-|--2--2--1--2----------0-0-|--2--2--1--2--0----0--0--|
--2--2--1--2--3----3--0-0-|--2--2--1--2--3----3--0-0-|--2--2--1--2-------------|
--2--2--1--2----------0-0-|--2--2--1--2----------0-0-|--2--2--1--2--5----5--5--|



-------------------------|-------------------------|-------------------------|
-------------------------|-------------------------|-------------------------|
--3--3--3--3--0----0--0--|--3--3--3--3--0----0--0--|--3--3--3--3--0----0--0--|
--3--3--3--3--0----0--0--|--3--3--3--3--0----0--0--|--3--3--3--3--0----0--0--|
--1--1--1--1-------------|--1--1--1--1-------------|--1--1--1--1-------------|
--------------5----5--5--|--------------5----5--5--|--------------5----5--5--|



-------------------------|-------------------------|-------------------------|
-------------------------|-------------------------|-------------------------|
--3--3--3--3--0----0--0--|--3--3--3--3--0----0--0--|--3--3--3--3--0----0--0--|
--3--3--3--3--0----0--0--|--3--3--3--3--0----0--0--|--3--3--3--3--0----0--0--|
--1--1--1--1-------------|--1--1--1--1-------------|--1--1--1--1-------------|
--------------5----5--5--|--------------5----5--5--|--------------5----5--5--|



-------------------------|-------------------------|--------------------------|
-------------------------|-------------------------|--------------1----1------|
--3--3--3--3--0----0--0--|--3--3--3--3--0----0--0--|--3--3--3--3--0----0------|
--3--3--3--3--0----0--0--|--3--3--3--3--0----0--0--|--3--3--3--3----------0-0-|
--1--1--1--1-------------|--1--1--1--1-------------|--1--1--1--1--3----3--0-0-|
--------------5----5--5--|--------------5----5--5--|----------------------0-0-|



----------------------||
----------------------||
----------------------||
--2--2--1--2----------||
--2--2--1--2----------||
--2--2--1--2----------||
Song info
I Hate Myself And Want To Die
Nirvana
2001
  • Rock
  • Grunge
Similar songs
Just Like You - Three Days Grace
Aneurysm - Nirvana
Animal - Pearl Jam

Hi! Hope you enjoy backing track experience.
If you want to help us in the development of the project, feel free to donate!