In Bloom - Nirvana
00:00 / 00:00
Tabs and lyrics
In Bloom
Nirvana
Tabbed by John Cooke


[Intro]
(distortion)

e|----------------|
B|----------------|
G|----------------|
D|-8-8--5---3-3-6-|
A|-8-8--5---3-3-6-|
E|-6-6--3---1-1-4-|(x2)


(then distortion, also the verse but the verse is played clean.)
e|----------------------------------------|
B|----------------------------------------|
G|---------------------8-8----------------|
D|-8-8--x-x--4-4--x-x--8-8--x-x--9-9--7-7-|
A|-8-8--x-x--4-4--x-x--6-6--x-x--9-9--7-7-|
E|-6-6--x-x--2-2--x-x-------x-x--7-7--5-5-|(x2)


[Chorus]

e|-------------|
b|-------------|
g|-------------|
d|-8-8-x-x-5-5-|
a|-8-8-x-x-5-5-|
E|-6-6-x-x-3-3-|(x4)

then:
e|------------|
b|------------|
g|------------|
D|-5-5-5-5-7--|
A|-5-5-5-5-7--|
E|-3-3-3-3-5--|(x2)


************************************

| x Dead note

************************************
In Bloom

Guitar 1
Needs bass


E||----------------------------|-----------------------------|
B||----------------------------|-----------------------------|
G||--3---3-3-------------------|-----------------------------|
D||--3---3-3--5---5-5--5-5-5-3-|--3---3-3/6-6----6-6-6-----0-|
A||--1---1-1--5---5-5--5-5-5-3-|--3---3-3/6-6----6-6-6-------|
E||-----------3---3-3--3-3-3-1-|--1---1-1/4-4----4-4-4-1-4---|



-----------------------------|----------------------|
-----------------------------|----------------------|
--3---3-3-0------------------|----------------------|
--3---3-3-0-5---5-5--5-5-5\3-|--3---3-3/-6----------|
--1---1-1-0-5---5-5--5-5-5\3-|--3---3-3/-6----------|
------------3---3-3--3-3-3\1-|--1---1-1/-4----------|



--------------------------------|---------------------------------|
--------------------------------|---------------------------------|
--3-3-3-3-3--x-3----------------|--8-8-8-8-8--x-8\4-4-4-4-2-2-2-2-|
--3-3-3-3-3--x-3-4-4-4-4-4--x-4/|--8-8-8-8-8--x-8\4-4-4-4-2-2-2-2-|
--1-1-1-1-1--x-1-4-4-4-4-4--x-4/|--6-6-6-6-6--x-6\2-2-2-2-0-0-0-0-|
-----------------2-2-2-2-2--x-2/|---------------------------------|



--------------------------------|---------------------------------|
--------------------------------|---------------------------------|
--3-3-3-3-3--x-3----------------|--8-8-8-8-8--x-8\4-4-4-4-2-2-2-2-|
--3-3-3-3-3--x-3-4-4-4-4-4--x-4/|--8-8-8-8-8--x-8\4-4-4-4-2-2-2-2-|
--1-1-1-1-1--x-1-4-4-4-4-4--x-4/|--6-6-6-6-6--x-6\2-2-2-2-0-0-0-0-|
-----------------2-2-2-2-2--x-2/|---------------------------------|



------------------|------------------|------------------|------------------|
------------------|------------------|------------------|------------------|
------------------|------------------|------------------|------------------|
------------------|------------------|------------------|------------------|
------------------|------------------|------------------|------------------|
------------------|------------------|------------------|------------------|



--1---1-1--x-0-2---2-2--x-x-|----------x------2------0---|
--3---3-3--x-0-2---2-2--x-x-|--8----8--x------4-4----2-2-|
--3---3-3--x-0-3---3-3--x-x-|--8----8--x-8-4--4-4-2--2-2-|
--3---3-3--x-0-4---4-4--x-x-|--8----8--x-8-4----3-2----2-|
--1---1-1------4---4-4------|--6----6----6-2------0------|
---------------2---2-2------|----------------------------|



-------1--x-0----------------|-------------------------------------------------|
-------3--x-0-2-2-2-2-2--x-x-|--8-8-8-8-8--8-8---------------------------------|
--3----3--x-0-3-3-3-3-3--x-x-|--8-8-8-8-8--8-8-4-4-4-4-4-4-4-4-7-7-7-7-7-7-7-7-|
--3-----------4-4-4-4-4--x-x-|--8-8-8-8-8--8-8-4-4-4-4-4-4-4-4-7-7-7-7-7-7-7-7-|
--1-----------4-4-4-4-4--x-x-|--6-6-6-6-6--6-6-2-2-2-2-2-2-2-2-5-5-5-5-5-5-5-5-|
--------------2-2-2-2-2--x-x-|-------------------------------------------------|



----------------------------|-------------------------------|
----------------------------|-------------------------------|
--3---3-3--3----------------|--3---3-3-3-3-3----------------|
--3---3-3--3--5--5-5-5--5-5-|--3---3-3-3-3-3-5--5-5-5-5-5-5-|
--1---1-1--1--5--5-5-5--5-5-|--1---1-1-1-1-1-5--5-5-5-5-5-5-|
--------------3--3-3-3--3-3-|----------------3--3-3-3-3-3-3-|



------------------------------|-------------------------------|
------------------------------|-------------------------------|
--3---3-3--3-3----------------|--3---3-3-3-3-3----------------|
--3---3-3--3-3-5--5-5-5-5-5-5-|--3---3-3-3-3-3-5--5-5-5-5-5-5-|
--1---1-1--1-1-5--5-5-5-5-5-5-|--1---1-1-1-1-1-5--5-5-5-5-5-5-|
---------------3--3-3-3-3-3-3-|----------------3--3-3-3-3-3-3-|



------------------------------|------------------------------|
--5--5-5-5--5-8--8-8-8-8--8-8-|--5--5-5-5--5-8--8-8-8-8--8-8-|
--5--5-5-5--5-8--8-8-8-8--8-8-|--5--5-5-5--5-8--8-8-8-8--8-8-|
--5--5-5-5--5-8--8-8-8-8--8-8-|--5--5-5-5--5-8--8-8-8-8--8-8-|
--3--3-3-3--3-6--6-6-6-6--6-6-|--3--3-3-3--3-6--6-6-6-6--6-6-|
------------------------------|------------------------------|



----------------------------|-------------------------------|
----------------------------|-------------------------------|
--3---3-3--3----------------|--3---3-3-3-3-3----------------|
--3---3-3--3--5--5-5-5--5-5-|--3---3-3-3-3-3-5--5-5-5-5-5-5-|
--1---1-1--1--5--5-5-5--5-5-|--1---1-1-1-1-1-5--5-5-5-5-5-5-|
--------------3--3-3-3--3-3-|----------------3--3-3-3-3-3-3-|



------------------------------|-------------------------------|
------------------------------|-------------------------------|
--3---3-3--3-3----------------|--3---3-3-3-3-3----------------|
--3---3-3--3-3-5--5-5-5-5-5-5-|--3---3-3-3-3-3-5--5-5-5-5-5-5-|
--1---1-1--1-1-5--5-5-5-5-5-5-|--1---1-1-1-1-1-5--5-5-5-5-5-5-|
---------------3--3-3-3-3-3-3-|----------------3--3-3-3-3-3-3-|



------------------------------|------------------------------|
--5--5-5-5--5-8--8-8-8-8--8-8-|--5--5-5-5--5-8--8-8-8-8--8-8-|
--5--5-5-5--5-8--8-8-8-8--8-8-|--5--5-5-5--5-8--8-8-8-8--8-8-|
--5--5-5-5--5-8--8-8-8-8--8-8-|--5--5-5-5--5-8--8-8-8-8--8-8-|
--3--3-3-3--3-6--6-6-6-6--6-6-|--3--3-3-3--3-6--6-6-6-6--6-6-|
------------------------------|------------------------------|



----------------------------|-----------------------------|
----------------------------|-----------------------------|
--3---3-3-------------------|-----------------------------|
--3---3-3--5---5-5--5-5-5-3-|--3---3-3/6-6----6-6-6-----0-|
--1---1-1--5---5-5--5-5-5-3-|--3---3-3/6-6----6-6-6-------|
-----------3---3-3--3-3-3-1-|--1---1-1/4-4----4-4-4-1-4---|



-----------------------------|----------------------------|------------------|
-----------------------------|----------------------------|------------------|
--3---3-3-0------------------|----------------------------|------------------|
--3---3-3-0-5---5-5--5-5-5\3-|--3---3-3/-6----6-6-6-6-6---|------------------|
--1---1-1-0-5---5-5--5-5-5\3-|--3---3-3/-6----6-6-6-6-6---|------------------|
------------3---3-3--3-3-3\1-|--1---1-1/-4----4-4-4-4-4-0-|------------------|



------------------|------------------|------------------|
------------------|------------------|------------------|
------------------|------------------|------------------|
------------------|------------------|------------------|
------------------|------------------|------------------|
------------------|------------------|------------------|



--1---1-1--x-0-2---2-2--x-x-|----------x------2------0---|
--3---3-3--x-0-2---2-2--x-x-|--8----8--x------4-4----2-2-|
--3---3-3--x-0-3---3-3--x-x-|--8----8--x-8-4--4-4-2--2-2-|
--3---3-3--x-0-4---4-4--x-x-|--8----8--x-8-4----3-2----2-|
--1---1-1------4---4-4------|--6----6----6-2------0------|
---------------2---2-2------|----------------------------|



-------1--x-0----------------|-------------------------------------------------|
-------3--x-0-2-2-2-2-2--x-x-|--8-8-8-8-8--8-8---------------------------------|
--3----3--x-0-3-3-3-3-3--x-x-|--8-8-8-8-8--8-8-4-4-4-4-4-4-4-4-7-7-7-7-7-7-7-7-|
--3-----------4-4-4-4-4--x-x-|--8-8-8-8-8--8-8-4-4-4-4-4-4-4-4-7-7-7-7-7-7-7-7-|
--1-----------4-4-4-4-4--x-x-|--6-6-6-6-6--6-6-2-2-2-2-2-2-2-2-5-5-5-5-5-5-5-5-|
--------------2-2-2-2-2--x-x-|-------------------------------------------------|



----------------------------|-------------------------------|
----------------------------|-------------------------------|
--3---3-3--3----------------|--3---3-3-3-3-3----------------|
--3---3-3--3--5--5-5-5--5-5-|--3---3-3-3-3-3-5--5-5-5-5-5-5-|
--1---1-1--1--5--5-5-5--5-5-|--1---1-1-1-1-1-5--5-5-5-5-5-5-|
--------------3--3-3-3--3-3-|----------------3--3-3-3-3-3-3-|



------------------------------|-------------------------------|
------------------------------|-------------------------------|
--3---3-3--3-3----------------|--3---3-3-3-3-3----------------|
--3---3-3--3-3-5--5-5-5-5-5-5-|--3---3-3-3-3-3-5--5-5-5-5-5-5-|
--1---1-1--1-1-5--5-5-5-5-5-5-|--1---1-1-1-1-1-5--5-5-5-5-5-5-|
---------------3--3-3-3-3-3-3-|----------------3--3-3-3-3-3-3-|



------------------------------|------------------------------|
--5--5-5-5--5-8--8-8-8-8--8-8-|--5--5-5-5--5-8--8-8-8-8--8-8-|
--5--5-5-5--5-8--8-8-8-8--8-8-|--5--5-5-5--5-8--8-8-8-8--8-8-|
--5--5-5-5--5-8--8-8-8-8--8-8-|--5--5-5-5--5-8--8-8-8-8--8-8-|
--3--3-3-3--3-6--6-6-6-6--6-6-|--3--3-3-3--3-6--6-6-6-6--6-6-|
------------------------------|------------------------------|



----------------------------|-------------------------------|
----------------------------|-------------------------------|
--3---3-3--3----------------|--3---3-3-3-3-3----------------|
--3---3-3--3--5--5-5-5--5-5-|--3---3-3-3-3-3-5--5-5-5-5-5-5-|
--1---1-1--1--5--5-5-5--5-5-|--1---1-1-1-1-1-5--5-5-5-5-5-5-|
--------------3--3-3-3--3-3-|----------------3--3-3-3-3-3-3-|



------------------------------|-------------------------------|
------------------------------|-------------------------------|
--3---3-3--3-3----------------|--3---3-3-3-3-3----------------|
--3---3-3--3-3-5--5-5-5-5-5-5-|--3---3-3-3-3-3-5--5-5-5-5-5-5-|
--1---1-1--1-1-5--5-5-5-5-5-5-|--1---1-1-1-1-1-5--5-5-5-5-5-5-|
---------------3--3-3-3-3-3-3-|----------------3--3-3-3-3-3-3-|



------------------------------|------------------------------|
--5--5-5-5--5-8--8-8-8-8--8-8-|--5--5-5-5--5-8--8-8-8-8--8-8-|
--5--5-5-5--5-8--8-8-8-8--8-8-|--5--5-5-5--5-8--8-8-8-8--8-8-|
--5--5-5-5--5-8--8-8-8-8--8-8-|--5--5-5-5--5-8--8-8-8-8--8-8-|
--3--3-3-3--3-6--6-6-6-6--6-6-|--3--3-3-3--3-6--6-6-6-6--6-6-|
------------------------------|------------------------------|



----------------------------|-----------------------------|
----------------------------|-----------------------------|
--3---3-3-------------------|-----------------------------|
--3---3-3--5---5-5--5-5-5-3-|--3---3-3/6-6----6-6-6-----0-|
--1---1-1--5---5-5--5-5-5-3-|--3---3-3/6-6----6-6-6-------|
-----------3---3-3--3-3-3-1-|--1---1-1/4-4----4-4-4-1-4---|



-----------------------------|----------------------------|-------------------|
-----------------------------|----------------------------|-------------------|
--3---3-3-0------------------|----------------------------|--8b---------------|
--3---3-3-0-5---5-5--5-5-5\3-|--3---3-3/-6----6-6-6-6-6---|-------------------|
--1---1-1-0-5---5-5--5-5-5\3-|--3---3-3/-6----6-6-6-6-6---|-------------------|
------------3---3-3--3-3-3\1-|--1---1-1/-4----4-4-4-4-4-0-|-------------------|



----------------------|-----------------------------|
----------------------|-----------------------------|
--8r-----0-6-6r-------|--6----6h8-6-8b--8-----6-8-8b|
----------------------|-------------------6h8-------|
----------------------|-----------------------------|
----------------------|-----------------------------|



----------------------------|-----------------------------|
----------------------------|----------------8----8h9-8-9r|
---8~-6-8---6-8-8r-6-8-8----|--10r------10-----10---------|
-------------------------0--|-----------------------------|
----------------------------|-----------------------------|
----------------------------|-----------------------------|



---------------------------|-----------------------|
------9h11-11b---11b-------|--11r--------------8---|
---------------------------|------------6----6-----|
----0----------------------|-----------------------|
---------------------------|-----------------------|
---------------------------|-----------------------|



-----------------------------------------------|----------------------------|
--8----8--7--6---------------------------------|----------------------------|
-----6---------4-4-4-4-4-4-4-4-7-7-7-7-7-7-7-7-|--3---3-3--3----------------|
---------------4-4-4-4-4-4-4-4-7-7-7-7-7-7-7-7-|--3---3-3--3--5--5-5-5--5-5-|
---------------2-2-2-2-2-2-2-2-5-5-5-5-5-5-5-5-|--1---1-1--1--5--5-5-5--5-5-|
-----------------------------------------------|--------------3--3-3-3--3-3-|



-------------------------------|------------------------------|
-------------------------------|------------------------------|
--3---3-3-3-3-3----------------|--3---3-3--3-3----------------|
--3---3-3-3-3-3-5--5-5-5-5-5-5-|--3---3-3--3-3-5--5-5-5-5-5-5-|
--1---1-1-1-1-1-5--5-5-5-5-5-5-|--1---1-1--1-1-5--5-5-5-5-5-5-|
----------------3--3-3-3-3-3-3-|---------------3--3-3-3-3-3-3-|



-------------------------------|------------------------------|
-------------------------------|--5--5-5-5--5-8--8-8-8-8--8-8-|
--3---3-3-3-3-3----------------|--5--5-5-5--5-8--8-8-8-8--8-8-|
--3---3-3-3-3-3-5--5-5-5-5-5-5-|--5--5-5-5--5-8--8-8-8-8--8-8-|
--1---1-1-1-1-1-5--5-5-5-5-5-5-|--3--3-3-3--3-6--6-6-6-6--6-6-|
----------------3--3-3-3-3-3-3-|------------------------------|



------------------------------|----------------------------|
--5--5-5-5--5-8--8-8-8-8--8-8-|----------------------------|
--5--5-5-5--5-8--8-8-8-8--8-8-|--3---3-3--3----------------|
--5--5-5-5--5-8--8-8-8-8--8-8-|--3---3-3--3--5--5-5-5--5-5-|
--3--3-3-3--3-6--6-6-6-6--6-6-|--1---1-1--1--5--5-5-5--5-5-|
------------------------------|--------------3--3-3-3--3-3-|



-------------------------------|------------------------------|
-------------------------------|------------------------------|
--3---3-3-3-3-3----------------|--3---3-3--3-3----------------|
--3---3-3-3-3-3-5--5-5-5-5-5-5-|--3---3-3--3-3-5--5-5-5-5-5-5-|
--1---1-1-1-1-1-5--5-5-5-5-5-5-|--1---1-1--1-1-5--5-5-5-5-5-5-|
----------------3--3-3-3-3-3-3-|---------------3--3-3-3-3-3-3-|



-------------------------------|------------------------------|
-------------------------------|--5--5-5-5--5-8--8-8-8-8--8-8-|
--3---3-3-3-3-3----------------|--5--5-5-5--5-8--8-8-8-8--8-8-|
--3---3-3-3-3-3-5--5-5-5-5-5-5-|--5--5-5-5--5-8--8-8-8-8--8-8-|
--1---1-1-1-1-1-5--5-5-5-5-5-5-|--3--3-3-3--3-6--6-6-6-6--6-6-|
----------------3--3-3-3-3-3-3-|------------------------------|



------------------------------|------------------------------|
--5--5-5-5--5-8--8-8-8-8--8-8-|--5--5-5-5--5-8--8-8-8-8--8-8-|
--5--5-5-5--5-8--8-8-8-8--8-8-|--5--5-5-5--5-8--8-8-8-8--8-8-|
--5--5-5-5--5-8--8-8-8-8--8-8-|--5--5-5-5--5-8--8-8-8-8--8-8-|
--3--3-3-3--3-6--6-6-6-6--6-6-|--3--3-3-3--3-6--6-6-6-6--6-6-|
------------------------------|------------------------------|



------------------------------||-----------------------------|
--5--5-5-5--5-8--8-8-8-8--8-8-||-----------------------------|
--5--5-5-5--5-8--8-8-8-8--8-8-||*--3---3-3-------------------|
--5--5-5-5--5-8--8-8-8-8--8-8-||*--3---3-3--5---5-5--5-5-5-3-|
--3--3-3-3--3-6--6-6-6-6--6-6-||---1---1-1--5---5-5--5-5-5-3-|
------------------------------||------------3---3-3--3-3-3-1-|



------------------------------||-------------------||
------------------------------||-------------------||
-----------------------------*||-------------------||
--3---3-3/6-6----6-6-6-------*||--8\---------------||
--3---3-3/6-6----6-6-6--------||--8\---------------||
--1---1-1/4-4----4-4-4-1-4-5--||--6\---------------||



In Bloom
Standard tuning
Might not be right but i think it sounds the closest to the real thing


E----------------- (2x)
B-----------------
G-----------------
D--8-88-5--3-33-6-
A--8-88-5--3-33-6-
e--6-66-3--1-11-4-

E---------------------------------- (2x)
B----------------------------------
G------------------88888-----------
D--88888-x-44444-x-88888-9999\7777-
A--88888-x-44444-x-66666-9999\7777-
e--66666-x-22222-x-66666-7777\5555-

E----------------------------------------------- (2x)
B-----------------------------------------------
G-----------------------------------------------
D---------------------1-1-1-1-1-----------------
A--1-1-1-1-1--------------------2-2-2-2-0-0-0-0-
e------------2-2-2-2-2--------------------------


Well thats all I know sofar. E-mail me if u have the rest.
#----------------------------------PLEASE NOTE---------------------------------#
#This file is the author's own work and represents their interpretation of the #
#song. You may only use this file for private study, scholarship, or research. #
#------------------------------------------------------------------------------##

-Kyle Wilson

This is my first tab so bear w/ me.IF someone else tabed the song this way, sorry i
didnt see it...

Chords are musted a lot thru-out the song listen to be exact

Standard Tuning

intro/post verse
e|-------------------|
B|-------------------|
G|-------------------|


Suggest correction


What's this?

You can suggest a correction to this tab. Community and Mods will review your correction and vote to approve or reject it.



[Intro]

e|----------------------------------------------------------------------------|
B|----------------------------------------------------------------------------|
G|--3--3-3/-------------------------------------------------------------------|
D|--3--3-3/---5----------------3--3--3/6--6-----------------------------------|
A|--1--1-1/---5----------------3--3--3/6--6-----------------0-----------------|
E|------------3----------------1--1--1/4--4--4----1--4------------------------|

e|----------------------------------------------------------------------------|
B|----------------------------------------------------------------------------|
G|--3--3-3/-------------------------------------------------------------------|
D|--3--3-3/----5------------3--3-3/6---6--------------------------------------|
A|--1--1-1/----5------------3--3-3/6---6--------------------------------------|
E|-------------3------------1--1-1/4---4--------------------------------------|

e|----------------------------------------------------------------------------|
B|----------------------------------------------------------------------------|
G|--3-3-3-3-3-x---------------0-/8-8-8-8-8-x-0-4-4-4-4-0-2-2-2----------------|
D|--3-3-3-3-3-x-0-4-4-4-4-4-x-0-/8-8-8-8-8-x-0-4-4-4-4-0-2-2-2----------------|
A|--1-1-1-1-1-x-0-4-4-4-4-4-x-0-/6-6-6-6-6-x-0-2-2-2-2-0-0-0-0----------------|
E|--------------0-2-2-2-2-2-x-------------------------------------------------|
play twice


[Verse]

e|--1-1-1-1-1-----------------------------------------------------------------|
B|--3-3-3-3-3-x-0--2-2-2-2-2---0-8-8-8-8-x-0-4-4-4-2-2-2----------------------|
G|--3-3-3-3-3-x-0--3-3-3-3-3-x-0-8-8-8-8-x-0-4-4-4-2-2-2----------------------|
D|--3-3-3-3-3-x-0--4-4-4-4-4-x-0-8-8-8-8-x-0-4-4-4-2-2-2----------------------|
A|--1-1-1-1-1-x-0--4-4-4-4-4-x-0-6-6-6-6-x-0-2-2-2-0-0-0----------------------|
E|-----------------2-2-2-2-2-x------------------------------------------------|

e|--1-1-1-1-1-----------------------------------------------------------------|
B|--3-3-3-3-3-x-0--2-2-2-2-2---0-8--8-8--8--8-8-------------------------------|
G|--3-3-3-3-3-x-0--3-3-3-3-3-x-0-8--8-8--8--8-8-------------------------------|
D|--3-3-3-3-3-x-0--4-4-4-4-4-x-0-8--8-8--8--8-8-------------------------------|
A|--1-1-1-1-1-x-0--4-4-4-4-4-x-0-6--6-6--6--6-6-------------------------------|
E|-----------------2-2-2-2-2-x------------------------------------------------|

distortion
e|----------------------------------------------------------------------------|
B|----------------------------------------------------------------------------|
G|--4-------------7-----------------------------------------------------------|
D|--4-------------7-----------------------------------------------------------|
A|--2-------------5-----------------------------------------------------------|
E|----------------------------------------------------------------------------|
Trem..........


[Chorus]

e|----------------------------------------------------------------------------|
B|----------------------------------------------------------------------------|
G|--3--3-3--3--3-0--------------0--3--3-3--3--3-0--------------0--------------|
D|--3--3-3--3--3-0--5-5--5-5--5-0--3--3-3--3--3-0--5-5--5-5--5-0--------------| x2
A|--1--1-1--1--1-0--5-5--5-5--5-0--1--1-1--1--1-0--5-5--5-5--5-0--------------|
E|------------------3-3--3-3--3--------------------3-3--3-3--3----------------|

e|----------------------------------------------------------------------------|
B|----------------------------------------------------------------------------|
G|--5--5--5-5-5-5-5/8-8-8-8-8-8-8-8--5--5--5-5-5-5-5/8-8-8-8-8-8-8-8----------|
D|--5--5--5-5-5-5-5/8-8-8-8-8-8-8-8--5--5--5-5-5-5-5/8-8-8-8-8-8-8-8----------|
A|--3--3--3-3-3-3-3/6-6-6-6-6-6-6-6--3--3--3-3-3-3-3/6-6-6-6-6-6-6-6----------|
E|----------------------------------------------------------------------------|


[Solo]

e|----------------------------------------------------------------------------|
B|----------------------------------------------------------------------------|
G|--8b~~~~~~~~~~~~~~~~~~~~~~------8b----br8-(0)--6---(6)b------br(6)--6-------|
D|----------------------------------------------------------------------------|
A|----------------------------------------------------------------------------|
E|----------------------------------------------------------------------------|

e|----------------------------------------------------------------------------|
B|----------------------------------------------------------------------------|
G|--6/8--6---8---8b-------6--8--(8)b-8~~6----6--8--8--------------------------|
D|------------------6/8---------------------------------0---------------------|
A|----------------------------------------------------------------------------|
E|----------------------------------------------------------------------------|

e|----------------------------------------------------------------------------|
B|------------------------------8-----8/9---8---9b--(11)b----11b--------------|
G|--/10b------br(10)--10----10------------------------------------------------|
D|----------------------------------------------------------------------------|
A|----------------------------------------------------------------------------|
E|----------------------------------------------------------------------------|

e|----------------------------------------------------------------------------|
B|--(11)~~~~~11b----br(11)---11/-----------8------8---------------------------|
G|-------------------------------------6------6-------6-----------------------|
D|----------------------------------------------------------------------------|
A|----------------------------------------------------------------------------|
E|----------------------------------------------------------------------------|


[Outro]

e|----------------------------------------------------------------------------|
B|----------------------------------------------------------------------------|
G|--3-------------------------------------------------------------------------|
D|--3-------------------------------------------------------------------------|
A|--1-------------------------------------------------------------------------|
E|----------------------------------------------------------------------------|



************************************

| x Dead note
| (n) Ghost note
| b Bend
| br Bend release
| / Slide up
| ~ Vibrato

************************************
TUNING: normal, probably played a half step down a few times too


[Intro]

FSUS4 DSUS4 CUS4 EbSUS4
e|----------------------------------------------------------------------------|
B|----------------------------------------------------------------------------|
G|--3--3-3/-------------------------------------------------------------------|
D|--3--3-3/---5----------------3--3--3/6--6-----------------------------------|
A|--1--1-1/---5----------------3--3--3/6--6-----------------0-----------------|
E|------------3----------------1--1--1/4--4--4----1--4------------------------|

FSUS4 DSUS4 CSUS4 EBSUS4
e|----------------------------------------------------------------------------|
B|----------------------------------------------------------------------------|
G|--3--3-3/-------------------------------------------------------------------|
D|--3--3-3/----5------------3--3-3/6---6--------------------------------------|
A|--1--1-1/----5------------3--3-3/6---6--------------------------------------|
E|-------------3------------1--1-1/4---4--------------------------------------|

SUS4 DSUS2 C#SUS4 DSUS4 BbSUS4 DSUS4 F#SUS4 DSUS4 ESUS4
e|----------------------------------------------------------------------------|
B|----------------------------------------------------------------------------|
G|--3-3-3-3-3-x---------------0-/8-8-8-8-8-x-0-4-4-4-4-0-2-2-2----------------|
D|--3-3-3-3-3-x-0-4-4-4-4-4-x-0-/8-8-8-8-8-x-0-4-4-4-4-0-2-2-2----------------|
A|--1-1-1-1-1-x-0-4-4-4-4-4-x-0-/6-6-6-6-6-x-0-2-2-2-2-0-0-0-0----------------|
E|--------------0-2-2-2-2-2-x-------------------------------------------------|
play twice


[Verse]

(DSUS4 6th) (DSUS4 6th) (DSUS4 6th) FSUS4 Gadd9 F# Gadd9 Eb Gadd9 F#SUS4 A
e|--1-1-1-1-1-----------------------------------------------------------------|
B|--3-3-3-3-3-x-0--2-2-2-2-2---0-8-8-8-8-x-0-4-4-4-2-2-2----------------------|
G|--3-3-3-3-3-x-0--3-3-3-3-3-x-0-8-8-8-8-x-0-4-4-4-2-2-2----------------------|
D|--3-3-3-3-3-x-0--4-4-4-4-4-x-0-8-8-8-8-x-0-4-4-4-2-2-2----------------------|
A|--1-1-1-1-1-x-0--4-4-4-4-4-x-0-6-6-6-6-x-0-2-2-2-0-0-0----------------------|
E|-----------------2-2-2-2-2-x------------------------------------------------|
FSUS4 Gadd9 F# Gadd9 Eb
e|--1-1-1-1-1-----------------------------------------------------------------|
B|--3-3-3-3-3-x-0--2-2-2-2-2---0-8--8-8--8--8-8-------------------------------|
G|--3-3-3-3-3-x-0--3-3-3-3-3-x-0-8--8-8--8--8-8-------------------------------|
D|--3-3-3-3-3-x-0--4-4-4-4-4-x-0-8--8-8--8--8-8-------------------------------|
A|--1-1-1-1-1-x-0--4-4-4-4-4-x-0-6--6-6--6--6-6-------------------------------|
E|-----------------2-2-2-2-2-x------------------------------------------------|


(Distortion)

e|----------------------------------------------------------------------------|
B|----------------------------------------------------------------------------|
G|--4-------------7-----------------------------------------------------------|
D|--4-------------7-----------------------------------------------------------|
A|--2-------------5-----------------------------------------------------------|
E|--Trem...........-----------------------------------------------------------|


[Chorus]

(G5) (G5) FSUS4 DSUS4 DSUS4 DSUS4 FSUS4 DSUS4 DSUS4 DSUS4
e|----------------------------------------------------------------------------|
B|----------------------------------------------------------------------------|
G|--3--3-3--3--3-0--------------0--3--3-3--3--3-0--------------0--------------|
D|--3--3-3--3--3-0--5-5--5-5--5-0--3--3-3--3--3-0--5-5--5-5--5-0--------------|
A|--1--1-1--1--1-0--5-5--5-5--5-0--1--1-1--1--1-0--5-5--5-5--5-0--------------|
E|------------------3-3--3-3--3--------------------3-3--3-3--3----------------|

play twice, then
GSUS4 BbSUS4 GSUS4 BbSUS4

e|----------------------------------------------------------------------------|
B|----------------------------------------------------------------------------|
G|--5--5--5-5-5-5-5/8-8-8-8-8-8-8-8--5--5--5-5-5-5-5/8-8-8-8-8-8-8-8----------|
D|--5--5--5-5-5-5-5/8-8-8-8-8-8-8-8--5--5--5-5-5-5-5/8-8-8-8-8-8-8-8----------|
A|--3--3--3-3-3-3-3/6-6-6-6-6-6-6-6--3--3--3-3-3-3-3/6-6-6-6-6-6-6-6----------|
E|----------------------------------------------------------------------------|


[Solo]

e|----------------------------------------------------------------------------|
B|---)~~~~~~~~~~~~~~~~~~~~~--------)-----(--------------)-------(-------------|
G|--8-----------------------------8-------8-(0)--6---(6)---------(6)--6-------|
D|----------------------------------------------------------------------------|
A|----------------------------------------------------------------------------|
E|----------------------------------------------------------------------------|

e|----------------------------------------------------------------------------|
B|----------------)----------------)------------------------------------------|
G|--6/8--6---8---8--------6--8--(8)--8~~6----6--8--8--------------------------|
D|------------------6/8---------------------------------0---------------------|
A|----------------------------------------------------------------------------|
E|----------------------------------------------------------------------------|

e|-----------------------------------------------)------)------)--------------|
B|-----)-------(----------------8-----8/9---8---9---(11)-----11---------------|
G|--/10---------(10)--10----10------------------------------------------------|
D|----------------------------------------------------------------------------|
A|----------------------------------------------------------------------------|
E|----------------------------------------------------------------------------|

e|-------------)-----(--------------------------------------------------------|
B|--(11)~~~~~11-------(11)---11/-----------8------8---------------------------|
G|-------------------------------------6------6-------6-----------------------|
D|----------------------------------------------------------------------------|
A|----------------------------------------------------------------------------|
E|----------------------------------------------------------------------------|


[Ending]

FSUS4
e|-----------------------------------------------------------------------------|
B|-----------------------------------------------------------------------------|
G|--3--------------------------------------------------------------------------|
D|--3--------------------------------------------------------------------------|
A|--1--------------------------------------------------------------------------|
E|-----------------------------------------------------------------------------|


************************************
| / Slide up
| \ Slide down
| x Dead note
|(n) Ghost note
************************************



Thanks to Bratzie for the original tab! Rock out! Sounds best with a Jaguar, Boss DS-1
pedal, Fender Twin Reverb, and Kurt Cobain on guitar. Peace!
Song info
In Bloom
Nirvana
2001
  • Rock
  • Alternative Rock
  • Grunge
Alternative tracks
Similar songs
Planet Telex - Radiohead
Animal Instinct - The Cranberries
Grind - Alice in Chains
Hands All Over - Soundgarden
Heathens - twenty one pilots

Hi! Hope you enjoy backing track experience.
If you want to help us in the development of the project, feel free to donate!