Lithium - Nirvana
00:00 / 00:00
Tabs and lyrics
Tunning: Standard (E A D G B e)
[Verse/Chorus]

E5 G#5 C#5 A5 C5 D5 B5 D5
e|-----------------|-----------------|-----------------|-----------------|
B|-----------------|-----------------|-----------------|-----------------|
G|-----------------|-----------------|---------2-2-2-2-|---------2-2-2-2-|
D|-----------------|-6---6-6-2-2-2-2-|-5---5-5-0-0-0-0-|-4---4-4-0-0-0-0-|
A|-2---2-2-6---6-6-|-4---4-4-0-0-0-0-|-3---3-3---------|-2---2-2---------|
E|-0---0-0-4---4-4-|-----------------|-----------------|-----------------|


[Bridge]

A5 C5
e|-----------------|
B|-----------------|
G|-----------------|x16
D|---2---2---5---5-|
A|---0---0---3---3-|
E|-----------------|


[End of Bridge]

D5 B5
e|-----------------|-----------------|-----------------|
B|-----------------|-----------------|-----------------|
G|-2---2-2-2-2-2-2-|-----------------|-----------------|
D|-0---0-0-0-0-0-0-|-4---4-4-4-4-4-4-|-4-4-4-4-4-4-----|
A|-----------------|-2---2-2-2-2-2-2-|-2-2-2-2-2-2-----|
E|-----------------|-----------------|-------------3---|


[Outro]

D5 B5 E5
e|-----------------|-----------------|-----------------|-----------------|
B|-----------------|-----------------|-----------------|-----------------|
G|-2---2-2-2-2-2-2-|-----------------|-----------------|-----------------|
D|-0---0-0-0-0-0-0-|-4---4-4-4-4-4-4-|-4-4-4-4-4-4-----|-2---------------|
A|-----------------|-2---2-2-2-2-2-2-|-2-2-2-2-2-2-----|-2---------------|
E|-----------------|-----------------|-------------3---|-0---------------|
I'm so happy 'cause today
I've found my friends ...
They're in my head
I'm so ugly, but that's okay, 'cause so are you ...
We've broken our mirrors [Alt: We broke our mirrors]
Sunday morning is everyday for all I care ...
And I'm not scared
Light my candles, in a daze
'Cause I've found god

Yeah, yeah, yeah [6x]

I'm so lonely, but that's okay, I shaved my head ...
And I'm not sad
And just maybe I'm to blame for all I've heard ...
But I'm not sure
I'm so excited, I can't wait to meet you there ...
But I don't care
I'm so horny, but that's okay ...
My will is good

Yeah, yeah, yeah [6x]

[2x]
I like it - I'm not gonna crack
I miss you - I'm not gonna crack
I love you - I'm not gonna crack
I killed you - I'm not gonna crack

I'm so happy 'cause today
I've found my friends ...
They're in my head
I'm so ugly, but that's okay, 'cause so are you ...
We've broken our mirrors [Alt: We broke our mirrors]
Sunday morning is everyday for all I care ...
And I'm not scared
Light my candles in a daze ...
'Cause I've found god

Yeah, yeah, yeah [6x]

[2x]
I like it - I'm not gonna crack
I miss you - I'm not gonna crack
I love you - I'm not gonna crack
I killed you - I'm not gonna crack
Song info
Lithium
Nirvana
1992
  • Rock
  • Grunge
Alternative tracks
Similar songs
Love Buzz - Nirvana
Violet - Hole
Drain You - Nirvana
Freak - Silverchair

Hi! Hope you enjoy backing track experience.
If you want to help us in the development of the project, feel free to donate!