Love Buzz - Nirvana
00:00 / 00:00
Tabs and lyrics
Tunning: Standard (E A D G B e)
Band/artist: Nirvana
Album: Bleach
Song: Love buzz (track 5)
Year: 1989

Key:
/= slide (up or down)
^= bend
)= softly play
(3)= bend and release

The tuning on this song is 1/2 a step down I think, but I'm not entirely sure.

This tab could possibly be different, but it sounds fine when I play it.


[INTRO] (bass tabbed for guitar):

e|-----------------------|
B|-----------------------|
G|-----------------------|
D|-----------------------| x8
A|-----------------4/5/4-|
E|--5--x--3--5--6--------|


[INTRO 2]

e|-------------------------------------------------------------------|
B|--2-----------------2-----------------2-2-2-----------------2-2-2--|
G|--2-----------------2-----------------2-2-2-----------------2-2-2--|
D|--2-----------------2-----------------2-2-2-----------------2-2-2--| x1
A|--0-----------------0-----------------0-0-0-----------------0-0-0--|
E|-------------------------------------------------------------------|

THEN PLAY:

e|-----0--0--5/3/0-----------------|
B|--2----------------5/3/0---------|
G|--2-----------------------4/2/0--|
D|--2------------------------------| x4
A|--0------------------------------|
E|---------------------------------|

THEN PLAY:

e|---------------------|
B|---------------------|
G|--------------6/7/8--|
D|--7--5--7--8---------| x4
A|---------------------|
E|---------------------|

THEN PLAY:

e|-----0--0--5/3/0-----------------|
B|--2----------------5/3/0---------|
G|--2-----------------------4/2/0--|
D|--2------------------------------| x4
A|--0------------------------------|
E|---------------------------------|


[VERSE 1] (bass tabbed for guitar):

e|------------------------|
B|------------------------|
G|------------------------|
D|------------------------| x8
A|-----------------4/5/4--|
E|--5--x--3--5--6---------|


[CHORUS]

e|------------------------------------------------------------------|
b|--2-----------------2-----------------2-2-2----------------2-2-2--|
g|--2-----------------2-----------------2-2-2----------------2-2-2--|
d|--2-----------------2-----------------2-2-2----------------2-2-2--| x1
a|--0-----------------0-----------------0-0-0----------------0-0-0--|
e|------------------------------------------------------------------|

THEN PLAY:

e|-----0--0--5/3/0-----------------|
b|--2----------------5/3/0---------|
g|--2-----------------------4/2/0--|
d|--2------------------------------| x4
a|--0------------------------------|
e|---------------------------------|

THEN PLAY:

e|---------------------|
b|---------------------|
g|--------------6/7/8--|
d|--7--5--7--8---------| x4
a|---------------------|
e|---------------------|


[SOLO 1]

e|----------------------------)--------------------------------------------|
b|--/8--8--7--7--7--7--5--7--7--7--7--7--7--5--5----------)--3--0----------|
g|------------------------------------------------7--7--5-------)-----)----|
d|----------------------------------------------------------------7--7--7--|
a|-------------------------------------------------------------------------|
e|-------------------------------------------------------------------------|

e|--------------------------------------------------------------------------|
b|-----------------------------)--------------------------------------------|
g|--9\7--6--5--0-----0-----5--7--7--6---------------------------------------|
d|----------------0-----7--------------5--7---------------)-----------------|
a|----------------------7--------------------6--3--0--3--7^--7--5--3--------|
e|---------------------------------------------------------------------5--3-|

e|-------------------------------------------------------------------------|
b|---------------------------------6/8--8/10--10/8-------------------------|
g|----------------------2--4--4/5--5/7--7/-9---9/7-------------------------|
d|--------------2--2/4-----------------------------------------------------|
a|---------)---------------------------------------------------------------|
e|--5--5--5----------------------------------------------------------------|


[VERSE 2] (bass tabbed for guitar)

e|------------------------|
b|------------------------|
g|------------------------|
d|------------------------| x8
a|-----------------4/5/4--|
e|--5--x--3--5--6---------|


[CHORUS]

e|-------------------------------------------------------------------|
b|--2-----------------2-----------------2-2-2-----------------2-2-2--|
g|--2-----------------2-----------------2-2-2-----------------2-2-2--|
d|--2-----------------2-----------------2-2-2-----------------2-2-2--| x1
a|--0-----------------0-----------------0-0-0-----------------0-0-0--|
e|-------------------------------------------------------------------|

THEN PLAY:

e|-----0--0--5/3/0-----------------|
b|--2----------------5/3/0---------|
g|--2-----------------------4/2/0--|
d|--2------------------------------| x4
a|--0------------------------------|
e|---------------------------------|

Then the bass guitar plays. Then you play:


[SOLO 2](I'm not 100% sure on this, but I think it's right):

e|----------------------------------12-12-12-12-12-12-12-12-12-12-12-12-|
b|---------)-----------------13--/--13-13-13-13-13-13-13-13-13-13-13-13-|
g|-----5--7--7--5-------------------------------------------------------|
d|--7--------------7--5--7--7-------------------------------------------|
a|----------------------------------------------------------------------|
e|----------------------------------------------------------------------|

e|--------------------------------------------------------------------------|
b|--------------------------------------------------------------------------|
g|--------------------------------------------------------------------------|
d|------------)--)-----------------------------------------9--9-10-10-10-12-|
a|--3--5--3--5--5--5--------------------0--0------5--7--7--9--9-10-10-10-12-|
e|--------------------3--3--2--0--2--3--------/7----------------------------|

e|---------------------------------------------------------------------|
b|--(3)----------------------------------------------------------------|
g|--(2)----------------------------------------------------------------|
d|------12-12-14-15-15-15-15-17/---------------------------------------|
a|------12-12-14-15-15-15-17-17/---------------------------------------|
e|---------------------------------------------------------------------|

THEN PLAY:

e|-----0--0--5/3/0-----------------|
b|--2----------------5/3/0---------|
g|--2-----------------------4/2/0--|
d|--2------------------------------| x4
a|--0------------------------------|
e|---------------------------------|


THEN PLAY:

e|---------------------|
b|---------------------|
g|--------------6/7/8--|
d|--7--5--7--8---------| X8
a|---------------------|
e|---------------------|


[END]

e|-----------------------------------------------------------------------|
b|--2----------2----------2----------2---2-2-2-2-2-2-2-2-2-2-2-2-2-2-2-2-|
g|--2----------2----------2----------2---2-2-2-2-2-2-2-2-2-2-2-2-2-2-2-2-|
d|--2----------2----------2----------2---2-2-2-2-2-2-2-2-2-2-2-2-2-2-2-2-|
a|--0----------0----------0----------0---0-0-0-0-0-0-0-0-0-0-0-0-0-0-0-0-|
e|-----------------------------------------------------------------------|

Well, that's it. Please rate this 'cause I'd like to know what you think. Thanks so much
- Mike



************************************

| x Dead note
| (n) Ghost note
| / Slide up
| \ Slide down

************************************
Tunning: Standard (E A D G B e)
-------------------------------------------------------------------------------
Love Buzz - Nirvana
-------------------------------------------------------------------------------
Tabbed by: Ryan
E-mail:rhino765@hotmail.com
Tuning:E Standard

This Is What Equipment I Think He Uses In The Song

Rig Setup

Guitar-1965 Fender Jaguar electric guitar
Pickup-Bridge Pickup
Pedal-Electro-Harmonix Big Muff Or Alternatively Use A BOSS ML2 Sounds Near Enough The Same
Strings-Dean Markley Nickle Steel Gauge (10-52) Or Ernie Ball Regular Slinkies Gauge (10-52)


[Intro]

e|-------------------------------|
B|-------------------------------|
G|--2-----2-----2-2-2-----2-2-2--|
D|--2-----2-----2-2-2-----2-2-2--|
A|--0-----0-----0-0-0-----0-0-0--|
E|-------------------------------|

e|------0-5-3-0------------| |---------------------| |------0-5-3-0------------| |--------------|
B|-------------5-3-0-------| |---------------------| |-------------5-3-0-------| |--------------|
G|--2---------------4-2-0--| |--------------6h7p6--| |--2---------------4-2-0--| |--------------|
D|--2----------------------| |--7~---5-7-8---------| |--2----------------------| |--2-----------|
A|--0----------------------| |---------------------| |--0----------------------| |--2-----------|
E|-------------------------| x4 |---------------------| x4 |-------------------------| x3 |--0---0-1\17--|


[Chorus]

e|-------------------------------|
B|-------------------------------|
G|--2-----2-----2-2-2-----2-2-2--|
D|--2-----2-----2-2-2-----2-2-2--|
A|--0-----0-----0-0-0-----0-0-0--|
E|-------------------------------|

e|------0-5-3-0------------| |---------------------|
B|-------------5-3-0-------| |---------------------|
G|--2---------------4-2-0--| |--------------6h7p6--|
D|--2----------------------| |--7~---5-7-8---------|
A|--0----------------------| |---------------------|
E|-------------------------| x4 |---------------------|x4


[First Solo]

e|--------------------------------------------------------------------------------------------------|
B|--8\9--777~--5-7-7b--7-777--5-5-------------------------------------------------------------------|
G|---------------------------------7-7-5-7b--7-7b--7--7b--7\6\5\1-0-----5-7--7b--7-7----------------|
D|------------------------------------------------------------------0-7--------------5-7------------|
A|--------------------------------------------------------------------7------------------6~--3-0-3--|
E|--------------------------------------------------------------------------------------------------|

e|-----------------------------------------------------------|
B|--------------------------------------------6\8-8\10-10/8--|
G|---------------------------------------4-5--5\7-7\9--9/-7--|
D|-----------------------------------2-4---------------------|
A|--7-7b-7---5-3---------------2\4-4-------------------------|
E|---------------5---3--5-5b-5-------------------------------|

e|------0-5-3-0------------| |--------------|
B|-------------5-3-0-------| |--------------|
G|--2---------------4-2-0--| |--------------|
D|--2----------------------| |--2-----------|
A|--0----------------------| |--2-----------|
E|-------------------------| x3 |--0---0-1\17--|


[Chorus]

e|---------------------------------| |------0-5-3-0------------| |-------------|
B|---------------------------------| |-------------5-3-0-------| |-------------|
G|--2------2-----2---2-2-2------2--| |--2---------------4-2-0--| |-------------|
D|--2------2-----2---2-2-2------2--| |--2----------------------| |--2----------|
A|--0------0-----0---0-0-0------0--| |--0----------------------| |--2----------|
E|---------------------------------|x1 |-------------------------|x3 |--0--0-1\17--|


[Solo]

e|----------------------------12b-12-12-12-12-12-12--12b--12-12-12-12-12---------------------------------|
B|----------------------------13b-13-13-13-13-13-13--13b--13-13-13-13-13---------------------------------|
G|-------5-7b--7-5---------------------------------------------------------------------------------------|
D|--7--7-----------7-5-7--7------------------------------------------------------------------------------|
A|------------------------------------------------------------------------3-5-3--5b-5b-5-----------------|
E|----------------------------------------------------------------------------------------3-3-2--0--2-3--|


[Outro]

e|-------------------------------------------------------------------------|
B|-------------------------------------------------------------------------|
G|-------------------------------------------------------------------------|
D|---------------------9-9-10-10-10---12-12-12-12--14-14--15-15-15--17-17--|
A|--0---0----5--7~-5---9-9-10-10-10---12-12-12-12--14-14--15-15-15--17-----|
E|---------7---------------------------------------------------------------|x1

e|------0-5-3-0------------| |---------------------|
B|-------------5-3-0-------| |---------------------|
G|--2---------------4-2-0--| |--------------6h7p6--|
D|--2----------------------| |--7~---5-7-8---------|
A|--0----------------------| |---------------------|
E|-------------------------|x4 |---------------------|x8

e|---------------------------------------------------------|
B|---------------------------------------------------------|
G|--2----2----2----2----2----------------------------------|
D|--2----2----2----2----2-2-2-2-2-2-2-2-2-2-2-2-2-2-2-2-2--|
A|--0----0----0----0----0-0-0-0-0-0-0-0-0-0-0-0-0-0-0-0-0--|
E|---------------------------------------------------------|

Song Info

Love Buzz From Nirvana's First Album "Bleach" Track 5-Label Sub Pop
It Was Released As A Debut Single In November 1988

This Song Was Also Covered/Remixed By The Prodigy-Song Name-Phoenix
And Also Lil' Kim Song Name-Kitty Box


************************************

| x Dead note
| h Hammer-on
| p Pull-off
| b Bend
| / Slide up
| \ Slide down
| ~ Vibrato

************************************
Song info
Love Buzz
Nirvana
2001
  • Rock
  • Grunge
Alternative tracks
Similar songs
Check My Brain - Alice in Chains
Pain - Three Days Grace
Scoff - Nirvana
Blandest - Nirvana
Comedown - Bush

Hi! Hope you enjoy backing track experience.
If you want to help us in the development of the project, feel free to donate!