You Know Youre Right - Nirvana
00:00 / 00:00
Tabs and lyrics
Author/Artist: Nirvana
Title: You Know You're Right
Album: Nirvana

TUNING: Tune the LOW E STRING down 1/2 step

D#|-|----------------------------------------------------------------------------|
A#|-|----------------------------------------------------------------------------|
F#|-|------7--5----------5--7-7-------7--5----7--7----5------------7--5----------|
C#|-|--------------5--7---------------------7------7-----5-5---------------5--7--|
G#|-|-5h7--------5---------------5h7--------------------------5h7--------5-------|
D#|-|----------------------------------------------------------------------------|
Harmonics Guitar 2 Harmonics Harmonics

D#|-|----------------------------------------------------------------------------|
A#|-|----------------------------------------------------------------------------|
F#|-|----------------------------------------------------------------------------|
C#|-|----------------------------------------------------------------------------|
G#|-|----------------------------------------------------------------------------|
D#|-|-0h2----------0h2-----------0h2----------0--2-2----------0h2----------0h2---|
v v Guitar1 v v v v v v v v v v v

D#|---------------------------|--------------------------------------------------|
A#|---------------------------|--------------------------------------------------|
F#|----5--7-7-------7--5------|--------------------------------------------------|
C#|-7-------------------------|--------------------------------------------------|
G#|------------5h7------------|--------------------------------------------------|
D#|---------------------------|--------------------------------------------------|
Harmonics

D#|---------------------------|--------------------------------------------------|
A#|---------------------------|--------------------------------------------------|
F#|---------------------------|---------3-----3----------------------------------|
C#|---------------------------|------------------------3-----3---3-----------3---|
G#|---------------------------|-3----3------3-----3-3--x---3---3-----------3-----|
D#|------------0h2------------|-0h2-------------2------2---0-------2--2p0--0---0-|
v v Palm Muted>v v ^ v ^ v ^ v v v ^ v ^ v v

D#|---------------------------------------------------------------------------|--|
A#|---------------------------------------------------------------------------|--|
F#|-----------------------------3---------------------------------------------|--|
C#|-------------3---3----3----------3-----------3---------------3---3---------|--|
G#|-----------3---3------3--------3---------------3-------------x---x---------|--|
D#|-2-2--2p0--0---0---2--2p0--0---0---2--2p0--0---0-2-2--2p0----0-0-2-2--2p0--|--|
^ v ^ v v

D#|-|-------------------------|------------------------------|----|--------------|
A#|-|-------------------------|------------------------------|----|--------------|
F#|-|------3----3---3---------|------------------------------|----|--------------|
C#|-|-3----3----3---3---------|---3---3----3----3---3--------|-3x-|--------------|
G#|-|-3----3------------------|-3---3---3--3--3---3---3------|----|--------------|
D#|-|-0-------0---0---2--2p0--|---------2--2----------2--2p0-|----|--------------|
verse P.M. P.M.verse riff continue interlude>>>

D#|---|----------------------------------------------------|------------|--------|
A#|---|----------------------------------------------------|------------|--------|
F#|---|-6--6---6--6-6--6-6--6-6--8--8----------------------|------------|--------|
C#|---|-6--6---6--6-6--6-6--6-6--8--8--8--8-8--8-8--8-8\---|------------|--------|
G#|---|-4--4---4--4-4--4-4--4-4--6--6--6--6-6--6-6--6-6\---|------------|--------|
D#|---|-x--x---x--x-x--x-x--x-x--7--7--7--7-7--7-7--7-7\---|------------|--------|
Dis.^ v v v ^ ^ v v ^ mv ^ ^ verse riff

D#|-------|------------------------------------------------|---------------------|
A#|-------|-------6------------6---------8-----------------|---------------------|
F#|-------|-------------6----------------------8------8----|---------------------|
C#|-------|----6------6-----6---------8------8-----8--8-8\-|---------------------|
G#|-------|-4----------------------6------------------6-6\-|---------------------|
D#|-------|---------------------------------------------7\-|---------------------|
v ^ v v ^ v ^ dis^ v chorus w/distor>>

D#|-|-----------------------------------------------------------------------|---|
A#|-|-----------------------------------------------------------------------|---|
F#|-|-----------------------------------------------------------------------|---|
C#|-|-1h3--3-3------1-1-1h3--3-3------1-1-1h3--3-3------1-1-1h3--3-3-3-3-1--|2x-|
G#|-|-3----3-3-3----3-3-3----3-3-3----3-3-3----3-3-3----3-3-3----3-3-3-3-3--|---|
D#|-|-0h2--2-2-2p0--0-0-0h2--2-2-2p0--0-0-0h2--2-2-2p0--0-0-0h2--2-2-2-2-0--|---|
> v v ^ v v ^ v v ^ v ^ v <

D#|--|---------------------------------------------------------------13vvvvvvvvv-|
A#|--|---------------------------------------------------------------------------|
F#|--|---------------------------------------------------------------------------|
C#|--|-----------------------------------------------------4b5r4b5r4-------------|
G#|--|-11---11-11-11-11-11-11---11-11-11-11\8---8---8-8----x---------------------|
D#|--|-10---10-10-10-10-10-10---10-10-10-10\7---7---7-7/10\2b3r2b3r3-------------|
v ^ v ^ v ^ v ^ v ^ v v v v v v v

D#|-vvvvvvvvvvvvvvvvv15b16vvvvvvvvvvvvvvvvvvvvvv15b17r15-13vvvvv--|--------------|
A#|---------------------------------------------------------------|--------------|
F#|---------------------------------------------------------------|--------------|
C#|---------------------------------------------------------------|--------------|
G#|---------------------------------------------------------------|--------------|
D#|---------------------------------------------------------------|--------------|
v v v m

D#|-|------------|------------------------------------------------------|--------|
A#|-|------------|-------6------------6------------8-------------8b--x--|--------|
F#|-|------------|-------------6---------6----------------8----------x--|--------|
C#|-|------------|----6------6-----6------------8------8------8---------|--------|
G#|-|------------|-4---------4---------------6--------------------------|--------|
D#|-|------------|------------------------------------------------------|--------|
verse riff m

D#|-|------------|-----------|--------|------|-----------------------------------|
A#|-|------------|-----------|--------|------|-----------------------------------|
F#|-|------------|-----------|--------|------|-----------------------------------|
C#|-|------------|-----------|--------|--4x--|-----------------------------------|
G#|-|------------|-----------|--------|------|-11--11-11-11-11-11-11----11-11-11-|
D#|-|------------|-----------|--------|------|-10--10-10-10-10-10-10----10-10-10-|
verse riff interlude chorus


D#|------------------------------------------------------------------------------|
A#|------------------------------------------------------------------------------|
F#|-----------------------------------------10b11r10-11-11-12-12-13-13-14-14-12--|
C#|----3-3--3---3--3-3-3-3-----3-3-3-3-3-3---------------------------------------|
G#|-11-1-1--1---1--x-x-x-x-----x-x-x-x-x-x---------------------------------------|
D#|-10-------------2-2-2-2b3r2-0-0-2-2-2-2b--------------------------------------|
m

D#|--------------------------------------------------|---------------------------|
A#|--------------------------------------------------|---------------------------|
F#|--------------------------------------------------|---------------------------|
C#|--------------------------------------------------|---------------------------|
G#|--------------------------------------------------|---------------------------|
D#|--------------------------------------------------|---------------------------|
the rest I don't have check it out for yourself.

Downloaded from www.taborama.com


Nirvana - You Know Your Right
Tabbed By: Tony Gare
EMail: tonocusgare@yahoo.ca
Studio Version

Tabbed by Tony Gare

Tuned Down Half-Step (d# g# c# f# a# d#)

[Verse/Intro]
(Clean single coil)

[Intro] (x10)

I will never bother you...
D#|----------------------------------|
A#|----------------------------------|
F#|----------------------------------|
C#|---------------4------4-----------|
G#|-------------4-4------4-----------|
D#|-------0h2-2-----0-0--------------|


Part 2(heavy fuzz) pre-chorus

D#|--------------------------------------------|
A#|--------------------------------------------|
F#|-------7---7--7777--7-7---9--9--9999--------|
C#|-------7---7--7777--7-7---9--9--9999--------|
G#|-------5---5--5555--5-5---7--7--7777--------|
D#|--------------------------------------------|

Part 3(clean) pre-chorus

D#|----------------------------------------------------------------------------|
A#|--------------7--------7-------------9-------9------------------------------|
F#|----------------7--------7-------------9-------9----------------------------|
C#|-----------7---------------7------9--------------9--------------------------|
G#|--------5----------5---------5/7----------7---------7-----------------------|
D#|----------------------------------------------------------------------------|

Chorus(heavy fuzz)

hey...
D#|------------------------------------|
A#|------------------------------------|
F#|------------------------------------|
C#|--------------------4--4---4--444---|
G#|------5/105--------4--4---4--444----|
D#|------------------0h2--2--2u--000---|

D#|--------------------------------------------|
A#|--------------------------------------------|
F#|-------7---7--7777--7-7---9--9--9999--------|
C#|-------7---7--7777--7-7---9--9--9999--------|
G#|-------5---5--5555--5-5---7--7--7777--------|
D#|--------------------------------------------|


Lick at end of Song *feedback
D#|-------------------------------------|
A#|-------------------------------------|
F#|-------------------/11*~-------------|
C#|--------9-8-9------------------------|
G#|---------------9---------------------|
D#|-------------------------------------|


************************************

| Harmonics Lightly place finger over string and strike
| you will get a ringing sound.
| P.M. = Palm Muted
| Dis.=Distortion
| p=pull off
| b=bend
| r=release
| h=hammer on
| v=strum down
| ^=strum up

************************************
Nirvana - You know your right
Tuning - 1/2 Down
By - Jim lambert


Intro - Repeat 4 times

E-------------------------------------------------
B-------------------------------------------------
G-------------------------------------------------
D--------------------4----------------------------
A--4-----4-4-4-4----------4----4-4-4-4----4-------
E--0h2---2-2-2-2-0--------0h2--2-2-2-2--0---------

PM |----------------------------------------|




Verse - Repeat 4 times

E-------------------------------------------------
B-------------------------------------------------
G-------------------------------------------------
D------------------------------------------4------
A--4-----4-4-4-4-4-4-------4----4-4-4-4----4------
E--0h2---2-2-2-2-0-0-------0h2--2-2-2-2--0--------

PM |----------------------------------------|


1st Bridge
Distorted

E-------------------------------------------------
B--7--7--7-7-7-7--7/9--9--9--9-9-9-9--9-----------
G--7--7--7-7-7-7--7/9--9--9--9-9-9-9--9-----------
D--7--7--7-7-7-7--7/9--9--9--9-9-9-9--9-----------
A--5--5--5-5-5-5--5/7--7--7--7-7-7-7--7-----------
E-------------------------------------------------



Verse - Repeat 4 times

E-------------------------------------------------
B-------------------------------------------------
G-------------------------------------------------
D------------------------------------------4------
A--4-----4-4-4-4-4-4-------4----4-4-4-4----4------
E--0h2---2-2-2-2-0-0-------0h2--2-2-2-2--0--------

PM |----------------------------------------|


@nd Bridge
Clean

E-------------------------------------------------
B----------7----------7----------9----------9-----
G-------7----7------7---7/9----9---9------9---9---
D----7--------7--7------7/9--9------9---9---------
A--------------5--------5/7-----------7-----------
E-------------------------------------------------


Chorus
Distorted


Repeat 4 times
E------------------------|--------------------------------------------
B------------------------|---7--7--7-7-7-7--7-7/9--9--9--9-9-9-9--9---
G------------------------|---7--7--7-7-7-7--7-7/9--9--9--9-9-9-9--9---
D--4-----4-4-4-4-4-4-----|---7--7--7-7-7-7--7-7/9--9--9--9-9-9-9--9---
A--4-----4-4-4-4-4-4-----|---5--5--5-5-5-5--5-5/7--7--7--7-7-7-7--7---
E--0h2---2-2-2-2-0-0-----|--------------------------------------------


INRTO

VERSE
I will never bother you
I will never promise to
I will never follow you
I will never bother you.

BRIDGE 1
Never speak a word again
I will crawl away for good

VERSE
I will move away from here
You won't be afraid of fear
No thought was put into this
And I've always known it would come to this.

BRIDGE 2
Things have never been so swell
And I have never felt so well.

CHORUS
Pain
You know you're right

VERSE
I'm so warm and calm inside
I no longer have to hide
Lets talk about someone else
Steaming soup begins to melt

BRIDGE 2
Nothing really bothers her
She just wants to love herself

VERSE
I will move away from here
You won't be afraid of fear
No thought was put into this
I've always knew it'd come to this

BRIGDE 1
Things have never been so swell
And I have never felt so swell.

CHORUS
Pain
You know you're right
Pain
Intro/Verse
F#5
e-----------------------------
B-----------------------------
G----------------------------- 8x
D-----------------------------
A--------4-------------4------
E-0p2-2-2----2--0p2-2---2-----

End Of Verse/End of Chorus
D E
e----------------------------|-----------------------------
B-----7-7-7-7-7-7-7-7-7-7-7--|9-9-9-9-9-9-9-9-9-9-9-9-9-9--
G-7---7-7-7-7-7-7-7-7-7-7-7--|9-9-9-9-9-9-9-9-9-9-9-9-9-9--
D-7---7-7-7-7-7-7-7-7-7-7-7--|9-9-9-9-9-9-9-9-9-9-9-9-9-9--
A-5---5-5-5-5-5-5-5-5-5-5-5--|7-7-7-7-7-7-7-7-7-7-7-7-7-7--
E----------------------------|-----------------------------

Heavier Verse Riff
F#5
e--------------------------------
B--------------------------------
G-------------------------------- 4x
D--------------------------------
A-4---4-4-4---4--4-4-4--4---4----
E-0p2-2-2-2---2--0p2-2--2---2----

e------------------------------------------------
B------------------------------------------------
G-----7-----7---------------9-----9--------------
D---7-----7---7----------9-----9---9-------------
A-5-----5--------------7-----7-------------------
E------------------------------------------------

Chorus
F#5
e-------------------------------------------------
B-------------------------------------------------
G-------------------------------------------------
D--4---4-4-4---4-4--4-4--4-4-4-4-4-4-4-4-4-4------
A--4---4-4-4---4-4--4-4--4-4-4-4-4-4-4-4-4-4------
E--0p2-2-0-0---0h2--2-0--0h2-2-0-0-0h2-2-2-0------

e-------------------------------------------------------
B----------------------18b~~~20br~~~~~------------------
G-------------------------------------------------------
D-------------------------------------------------------
A-------------------------------------------------------
E-------------------------------------------------------

Heavier Verse Riff
F#5
e------------------------------
B------------------------------
G------------------------------ 4x
D------------------------------
A-4---4-4-4---4--4-4-4--4---4--
E-0p2-2-2-2---2--0p2-2--2---2--

e------------------------------------------------
B------------------------------------------------
G-----7-----7---------------9-----9--------------
D---7-----7---7----------9-----9---9-------------
A-5-----5--------------7-----7-------------------
E------------------------------------------------

F#5
e-----------------------------
B-----------------------------
G----------------------------- 4x
D-----------------------------
A-------4--------------4------
E-0p2-2-2----2--0p2-2--2------


D E
e----------------------------|-----------------------------
B-----7-7-7-7-7-7-7-7-7-7-7--|9-9-9-9-9-9-9-9-9-9-9-9-9-9--
G-7---7-7-7-7-7-7-7-7-7-7-7--|9-9-9-9-9-9-9-9-9-9-9-9-9-9--
D-7---7-7-7-7-7-7-7-7-7-7-7--|9-9-9-9-9-9-9-9-9-9-9-9-9-9--
A-5---5-5-5-5-5-5-5-5-5-5-5--|7-7-7-7-7-7-7-7-7-7-7-7-7-7--
E----------------------------|-----------------------------

Chorus
F#5

e--------------------------------------------
B--------------------------------------------
G--------------------------------------------
D--4---4-4-4---4-4--4-4--4-4-4-4-4-4-4-4-4-4-
A--4---4-4-4---4-4--4-4--4-4-4-4-4-4-4-4-4-4-
E--0p2-2-0-0---0h2--2-0--0h2-2-0-0-0h2-2-2-0-

Ending Bendy sounding part

e---------------------------------------
B---------------------------------------
G---------------------------------------
D---------------------------------------
A-/19br----12~~~~~----------------------
E---------------------------------------

e-----------------------------------------------
B-----------------------------------------------
G-----------------------------------------------
D-----------------------------------------------
A--13--12--13b--12~~~~~~19b---------------------
E-----------------------------------------------

at the last "Pain"

F#5
e-----------------------------
B-----------------------------
G----------------------------- 4x
D-----------------------------
A--------4-------------4------
E-0p2-2-2----2--0p2-2--2------

Lyrics:

I will never bother you
I will never promise to
I will never follow you
I will never bother you
Never speak a word again
I will crawl away for good
I will move away from here
You won't be afraid of fear
If i was but any of this
And always knew it would come to this
Things have never been so swell
I have never felt or felt

Pain...Pain..Pain...Pain...

You Know You're Right

Need someone to co-inside
I no longer have to hide
Lets talk about someone else
Stinging silver begins to melt
nothing really bothers her
she just wants to love himself
i will move away from here
You won't be afraid of fear
if i was but any of this
Always knew it would come like this
Things have never been so swell
i have never felt or felt

Pain.....Pain.......Pain.......Pain......
You Know Your Right
pain...
#----------------------------------PLEASE NOTE--------------------------------#
#This file is the author's own work and represents their interpretation of the#
#song. You may only use this file for private study, scholarship, or research.#
#-----------------------------------------------------------------------------#
#-- File created with Instab - http://www.pconline.com/~smcarey/instab.html --#
#-----------------------------------------------------------------------------#

Author/Artist: Nirvana
Title: You Know You're Right
Transcribed By: DGreens


h hammer on
p pull off
/ slide up
\ slide down
m mute
A Arpeggio



Palm mute top four strings.
Tuning (eb A D G B E)



----|-------|
----|-------|
----|-------|
----|-------|
----|-------|
----|-0h2---|


G1 Intro



----|---------------------------------|--|--------------|
----|----------20------------20-------|--|---------20---|
----|-------19-----19-19--------19-19-|--|------19------|
----|-19h20--------------19-----------|--|-19h20--------|
----|---------------------------------|--|--------------|
----|---------------------------------|--|--------------|


G2 Intro






----------|-----------------|--|
----------|-----------------|--|
----------|-----------------|--|
-------3--|-----------------|--|
-----3----|---3---3---------|--|
-0h2------|-0---0---2--2p0--|--|


Verse






----|------------|
----|------------|
----|------------|
----|------------|
----|-11--13-\---|
----|-10--12-\---|


Bridge



----|----------|
----|----------|
----|-3--------|
----|-3--------|
----|-3--------|
----|-2--------|


Verse Pick



----|--------------------------------|
----|---6-----6------8---------------|
----|-----6------------8-------------|
----|-------6------------------------|
----|-4-----------6------------------|
----|---------------------9-9/12-\---|


Bridge 2






----|--------------------------------|--|------------------|
----|--------------------------------|--|------------------|
----|--------------------------------|--|------------------|
----|--------------------------------|--|------------------|
----|--------------------------------|--|------------------|
----|-0h1-2-2-2p0-0-0-0h2-2-2-2p0-0--|--|-5--7---12\--0h2--|


Chorus Tremolo pick



----|-15vv/17vvv17-15vv|
----|------------------|
----|------------------|
----|------------------|
----|------------------|
----|------------------|


Chorus End







----|-------------------------------------------------------------------|
----|-------------------------------------------------------------------|
----|-------------------------------------------------------------------|
----|-------------------------------------------------17171818----------|
----|-------------------------17br17171818191920202121--------20--------|
----|1/2-2-2-2p0-0-0-1/2-2-2-------------------------------------1/2-2--|


Interlude



---------------------------------------------------------|
---------------------------------------------------------|
---------------------------------------------------------|
---------------------------------------------------------|
---------------------------------------------------------|
-2-2-2p0-0-0--2-2-2-2p0-0--1/2-2-2-2----2-2-2-2p0-0--2-\-|





----|---------------------------------------|
----|---------------------------------------|
----|---------------------------------------|
----|---------------------------------------|
----|--18b19b20r19r18/-----14----14----19b--|
----|----------------18vv----18----18-------|



--------------------|---------------------|
--------------------|---------------------|
--------------------|---------------------|
--------------------|---------------------|
--14----14-----19b--|-14----14------19b---|
-----18----18v------|----18----18v\-------|
play 2x play 4x




-------------------------19vvvv17vvvvvvvvvvvvvv-------------|
------------------------------------------------------------|
-----------------------------------------------17b----------|
-----------------------------------------------x-----20vvv--|
--14----14-----18bvvv--------------------------20b----------|
-----18----18v\--------------------------------21b-2--------|
A


Intro/Outro

This is the leaked studio version of You know you're right

Drop D Tuning

INTRO
guitar 1
e---------|-----------|-----------|---------|
B---------|-----------|-----------|---------|
G---------|-----------|-----------|---------|
D---------|-----------|-----------|---------|
A---------|-----------|-----------|---------|
D-0h2-----|-2-0h2-----|-2-0h2-----|-0-2-----|
guitar 2
e-------|
B-------|
G-----6-|
D---6---|
A-6-----|
D-------|
-harmonics-

VERSE
e-------------|-------------|
B-------------|-------------|
G-------------|-------------|
D-------------|-------------|
A-------2---2-|-------------|
D-0h2-2---2---|-0h2-2-2-2-2-|
- - - - - - p.m - - - - - -

never speak a word again...
e-----------|-----------|
B-----------|-----------|
G-----------|-----------|
D-5-5-5-5-5-|-7-7-7-7-7-|
A-5-5-5-5-5-|-7-7-7-7-7-|
D-5-5-5-5-5-|-7-7-7-7-7-|

PRE-CHORUS
e---------|-------|
B---------|-------|
G-----6---|---6---|
D---6---6-|-----6-|
A-6-------|-6-----|
D---------|-------|

CHORUS
e-----------| |-----------|-----------|
B-----------| |-----------|-----------|
G-----------| |-----------|-----------|
D-5-5-5-5-5-| |-7-7-7-7-7-|-9-9-9-9-9-|
A-5-5-5-5-5-| |-7-7-7-7-7-|-9-9-9-9-9-|
D-5-5-5-5-5-|4x|-7-7-7-7-7-|-9-9-9-9-9-|
(6x on 2nd chorus)

you know you're right...
e-------------|
B-------------|
G-8-7-8-7~/10-|
D-------------|
A-------------|
D-------------|

OUTRO
guitar1
e---------|
B---------|
G---------|
D---------|
A---------|
D-0h2-----|
guitar2
e---------|-------|
B---------|-------|
G-----6---|---6---|
D---6---6-|-----6-|
A-6-------|-6-----|
D---------|-------|let first note ring on last one
-harmonics-
YOU KNOW YOU'RE RIGHT
Nirvana

F#5 2 4 4 x x x
D x 5 7 7 7 x
D/A 5 5 7 7 7 x
E/B 7 7 9 9 9 x
E x 7 9 9 9 x
D5/A 5 5 7 7 x x



Intro
Moderate Rock Q=86
N.C.(F#5)
4/4
Gtr II
PM----------------------------------------------------------------------
|---------16--------------16--------|---------16--------------------16----|
|------16---------------------------|------16----------16-(16)------------|
|-16----------16-(16)--16-----16-16-|-16----------(16)---------16---------|
|-----------------------------------|-------------------------------------|
|-----------------------------------|-------------------------------------|
|-----------------------------------|-------------------------------------|
|
| Gtr I
|-----------------------------------|-------------------------------------|
|-----------------------------------|-------------------------------------|
|-----------------------------------|-------------------------------------|
|-----------------------------------|-------------------------------------|
|-----------------------------------|-------------------------------------|
|--0h2----(2)--2---0h2----(2)--2----|--0h2----(2)-------0--(0)h=2-2-(2)-2-|


----------------------------------|
|---------16----------------16---------|
|------16--------16------16------------|
|-16----------16----16----------16-16--|
|--------------------------------------|
|--------------------------------------|
|--------------------------------------|
|
|--------------------------------------|
|--------------------------------------|
|--------------------------------------|
|--------------------------------------|
|--------------------------------------|
|--0h2----(2)--2-----0h2----(2)--2--2--|


F#5
PM----------|
|---------16---(16)----||-------------------------|
|------16--------------||-------------------------|
|-16-------------------||-------------------------|
|----------------------||-------------------------|
|----------------------||-------------------------|
|----------------------||-------------------------|
|
| PM-----------------------
|----------------------||-------------------------|
|----------------------||-------------------------|
|----------------------||-------------------------|
|----------------------||-------4---4-------4-----|
|----------------------||-4---4---4-----4-4-4---4-|
|--0h2----(2)---(2)----||-0h2-2-------0---2-2-0---|


|------------------------------|
|------------------------------|
|------------------------------|
|------------------------------|
|------------------------------|
|------------------------------|
|
|---------------------------|
|------------------------------|
|------------------------------|
|------------------------------|
|------------------------------|
|---4---4-----4-------------4--|
|-0---2-2p0-0---0-2-2-2p0-0----|


Gtr I
PM-------------------------
|---------------------------|
|---------------------------|
|---------------------------|
|-------4---4---------------|
|---4---4-------4---------4-|
|-0---2-2-0---0---2-2p0-0---|


1st Verse
F#5
---------------------------------------------------|
|---------------------------||------------------------|
|---------------------------||------------------------|
|---------------------------||------------------------|
|---------------------------||-------4---4--4---4-----|
|-------------4---4-------4-||-4-----4-x--------4---4-|
|-0-2-2-2p0-0---0---2-2p0-0-||-0h2-2----------2---0---|


PM-------------------------
|---------------------------|
|---------------------------|
|---------------------------|
|-----------4---------------|
|---4---4-4-4---4---4-----4-|
|-0---2-2-----2---2-2p0-0---|


Gtr III
-----------------------------------------------|
|-----------------------------|-----------------------||
|-----------------------------|-------------------0---||
|-----------------------------|-------------------x-0-||
|---------------------------4-|-----------4-4-4-4-4-0-||
|-------4-----4---4-4-4-----4-|---4---4-4-4-4-4-4-4-0-||
|-0h2-2-2p0-0---0---2-2p0-0---|-0---2-2-2-2-2-2-2-2-0-||


1st Pre-chorus
D D/A
|-------------------------|
|-7-7-7-7-7-(7)-7-7-7-7---|
|-7-7-7-7-7-(7)-7-7-7-7---|
|-7-7-7-7-7-(7)-7-7-7-7---|
|-5-5-5-5-5-(5)-5-5-5-5-5-|
|-----------------5-5-5-5-|


2nd Verse
E/B F#5
Gtr I
|----------------------------||------------------------|
|-7s9-9-9-9-9-9-9-9-9-9-9----||------------------------|
|-7s9-9-9-9-9-9-9-9-9-9-9-9\-||-------4----------------|
|-7s9-9-9-9-9-9-9-9-9-9-9-9\-||-4-----------------4----|
|-5s7-7-7-7-7-7-7-7-7-7-7-7\-||-4---4---4-4-4---4------|
|-5s7-7-7-7-7-7-7-7-7-7-7-7\-||-0h2-----0-0-0h2-2---0--|


|----------------------|---------------------|------------------||
|----------------------|---------------------|------------------||
|----------------------|---------------------|------------------||
|-----4--4-------4-4---|-4---4-4-(4)-4-(4)---|-4---4-4-4-4--4---||
|----------4---4-4-4---|---------------------|-------4-4-4--4---||
|-(0)------0h2-2-2-2-0-|---2---------------0-|---2---2-2-2--2-0-||


2nd Pre-chorus
D E
Gtr III
|-------------------|----------------------------||
|-----7---------7---|-------9--------------------||
|---7---7-(7)-------|-------9---9-9-9-9-9--------||
|-7-----------7---7-|-7s9-9---9-9-9-9-9-9--------||
|-5---------------5-|-5s7-7---7-7-7-7-7-7s12-----||
|-------------------|------------------------12\-||


1st Chorus
F#5
|----------------------------------|
|----------------------------------|
|----------------------------------|
|----------------------------------|
|-4---4-4-4---4-------4-4-4---4-4--|
|-0h2-2-2-2p0-0-0-(0)-2-2-2p0-0-0--|


|---------------------------|
|---------------------------|
|---------------------------|
|---------------------------|
|-4---4-4-4-4-4-(4)-4-4-4-4-|
|-0h2-2-2-2-2-0-(0)-2-2-2-0-|


|---------------------------|--------------------------|
|---------------------------|--------------------------|
|---------------------------|--------------------------|
|---------------------------|-----------------------0--|
|-4---4-4-4-4-(4)-4-4-4-----|---4-4-4-4-4-(4)-4-4-4-0--|
|-0h2-2-2-2-0-(0)-2-2-2-0-0-|-0-2-2-2-2-0-(0)-2-2-2-0--|


D5 D5/A E/B N.C.(F#5)
-----|------5b7==(5)---(5)-[5]r-|
|-3\---------------------3-4-|-3--4---------------------|
|----------------------------|--------------------------|
|----------------------------|--------------------------|
|----0-(0)-------------------|--------------------------|





Suggest correction


What's this?

You can suggest a correction to this tab. Community and Mods will review your correction and vote to approve or reject it.



Nirvana
You know you're right
Tabbed by Ratm/Nirvana

TUNE HALF-STEP DOWN!
Eb
Bb
Gb
Db
Ab
Eb

(Oh yea and by the way, your not suppost to do this but
i bought the Nirvana official tab book from Guitar Center and this is how
it said to play it, so trust me.. its right!)

[Intro/verse]
(this is also played before he starts singing)

e|-------------------------------------------------------------|
B|-------------------------------------------------------------|
G|-------------------------------------------------------------|
D|-------4---4-------------------------------------------------|
A|-4---4---4-----4----4---4----4----4-----4-------4-----4------|
E|-0h2---------0---2--2-0----2---2--2-0-0---0-2-2-2-0-0--------|

e|-------------------------------------------------------------|
B|-------------------------------------------------------------|
G|-------------------------------------------------------------|
D|-------------4-----------------------------------------------|
A|---4---4---------4----4-----4-------4-----4---4----4---4-----|
E|-2---2-2-0-0---0---2--2-0-0---0-2-2-2-0-0---0---2--2-0-0-----|
(Some variations in the verse)


[Fill 1]

"never speak a word"
e|------------------------------------------------|
B|-7-7-7-7-7-7-9-9-9-9-9-9-9-9-9-9----------------|
G|-7-7-7-7-7-7-9-9-9-9-9-9-9-9-9-9----------------|
D|-7-7-7-7-7-7-9-9-9-9-9-9-9-9-9-9----------------|
A|-5-5-5-5-5-5-7-7-7-7-7-7-7-7-7-7----------------|
E|------------------------------------------------|

Guitar 2 plays this over the top-
"Things have never been so swell..."

e|----------------------------------------------|
B|------7----------7----------9-----------------|
G|---------7------------------9-9---------------|
D|---7----------7---------------9---------------|
A|-5----------5------5-5h7--7-----7-7-7h12------|
E|----------------------------------------------|


[Chorus]

"Hey hey hey hey hey"

e|---------------------------------|
B|---------------------------------|
G|---------------------------------|
D|-4----4-4-4--4----4-4------------|
A|-4----4-4-4--4----4-4------------|
E|-0h2--2-2-0--0h2--2-2------------|
(Repeat 4 times than..)

"hey hey hey"

e|------------------------------------|
B|-7-7-7-7-7-7-7-9-9-9-9-9-9-9--------|
G|-7-7-7-7-7-7-7-9-9-9-9-9-9-9--------|
D|-7-7-7-7-7-7-7-9-9-9-9-9-9-9--------|
A|-5-5-5-5-5-5-5-7-7-7-7-7-7-7--------|
E|------------------------------------|

"you know you're right"
(tremelo pick these notes)

e|-14////---16//////--17--14-------|
B|---------------------------------|
G|---------------------------------|
D|---------------------------------|
A|---------------------------------|
E|---------------------------------|

Please rate or comment!

-Dont kill rock



************************************

| h Hammer-on
| / Slide up

************************************
You Know You're Right
Nirvana

Tuned down half-step

Intro
(pick the x's between the bridge and tailpiece)
(use fret hand to do the hammer-on)

e|-------x---------x---------x---------x---|
B|-----x---------x---------x---------x-----|
G|-x-------x-x-------x-x-------x-x-------x-|
D|-----------------------------------------|
A|-----------------------------------------|
E|-0h2-------0h2-------0h2-------0h2-------|

e|-------x---------x---------x---------x---|
B|-----x---------x---------x---------x-----|
G|-x-------x-x-------x-x-------x-x---------|
D|-----------------------------------------|
A|-----------------------------------------|
E|-0h2-------0h2-------0h2-------0h2-------|

e|-------------------------|-----------------------------|
B|-------------------------|-----------------------------|
G|-------------------------|-----------------------------|
D|-------4---4-------------|-----------------------------|
A|-4---4---4-----4---4---4-|---4---4-----4-------4-----4-|
E|-0h2---------0---2-2-0---|-2---2-2p0-0---0-2-2-2p0-0---|
(pm)

e|-----------------------------|---------------------------|
B|-----------------------------|---------------------------|
G|-----------------------------|---------------------------|
D|-------------4---------------|---------------------------|
A|---4---4---------4---4-----4-|-------4-----4---4---4---4-|
E|-2---2-2p0-0---0---2-2p0-0---|-0-2-2-2p0-0---0---2-2p0-0-|
(pm)

e|-------------------------|-----------------------------|
B|-------------------------|-----------------------------|
G|-------------------------|-----------------------------|
D|-------4---4-------------|-----------------------------|
A|-4---4---4-----4---4---4-|---4---4-----4-------4-----4-|
E|-0h2---------0---2-2-0---|-2---2-2p0-0---0-2-2-2p0-0---|
(pm)

e|-----------------------------|---------------------------|
B|-----------------------------|---------------------------|
G|-----------------------------|---------------------------|
D|-------------4---------------|---------------------------|
A|---4---4---------4---4-----4-|-------4-----4---4---4---4-|
E|-2---2-2p0-0---0---2-2p0-0---|-0-2-2-2p0-0---0---2-2p0-0-|
(pm)

e|-------------------------|-----------------------------|
B|-------------------------|-----------------------------|
G|-------------------------|-----------------------------|
D|-------4---4-------------|-----------------------------|
A|-4---4---4-----4---4---4-|---4---4-----4-------4-----4-|
E|-0h2---------0---2-2-0---|-2---2-2p0-0---0-2-2-2p0-0---|
(pm)

e|-----------------------------|---------------------------|
B|-----------------------------|---------------------------|
G|-----------------------------|---------------------------|
D|-------------4---------------|---------------------------|
A|---4---4---------4---4-----4-|-------4-----4---4---4---4-|
E|-2---2-2p0-0---0---2-2p0-0---|-0-2-2-2p0-0---0---2-2p0-0-|
(pm)

Verse
(I will never bother you...)
e|-------------------------|-----------------------------|
B|-------------------------|-----------------------------|
G|-------------------------|-----------------------------|
D|-------4---4-------------|-----------------------------|
A|-4---4---4-----4---4---4-|---4---4-----4-------4-----4-|
E|-0h2---------0---2-2-0---|-2---2-2p0-0---0-2-2-2p0-0---|
(pm)

e|-----------------------------|-----------------------------|
B|-----------------------------|-----------------------------|
G|-----------------------------|-----------------------------|
D|-------------4---------------|-----------------------------|
A|---4---4---------4---4-----4-|---4---4---4---4---4--4--0-0-|
E|-2---2-2p0-0---0---2-2p0-0---|-2-2-2-2---2---2---2--2--0-0-|
pm . . . . . . . . . . . . . . . . . . .

(Never speak a word again...)
e|-----------------------|------------------------------|
B|-7---7----7---7--7---7-|-9---9--9--9--9--9---9-9-9-9\-|
G|-7---7----7---7--7---7-|-9---9--9--9--9--9---9-9-9-9\-|
D|-7---7----7---7--7---7-|-9---9--9--9--9--9---9-9-9-9\-|
A|-5---5----5---5--5---5-|-7---7--7--7--7--7---7-7-7-7\-|
E|-----------------------|------------------------------|

(I will move away form here...)
e|------------------------|---------------------|
B|------------------------|---------------------|
G|------------------------|---------------------|
D|-------4--------------4-|---4----4----4--4--4-|
A|-----4-------4-4-4--4---|---------------------|
E|-0h2--------------------|---------------------|

e|-------------------------------|----------------------------|
B|-------------------------------|----------------------------|
G|-------------------------------|----------------------------|
D|-4----4------------------------|----------------------------|
A|-------------------------------|-4----4--4--4---4---4--4----|
E|-----------0h2--2---2--2p0--0--|-0h2--2--2--2---2---2--2--0-|

(Things have never been so swell...)
e|--------------------------|------------------------------|
B|--------7-----------7-----|---------9--------------------|
G|------------7-------------|---------9-----9--------------|
D|-----7----------7---------|---------------9--------------|
A|-5------------5---------5-|-5/7--7-----------7--7--7/12\-|
E|--------------------------|------------------------------|

Pre-Chorus

(hey...)
e|------------------------------------|
B|------------------------------------|
G|------------------------------------|
D|-4---4---4---4---4----4---4---4---4-| x6
A|-4---4---4---4---4----4---4---4---4-|
E|-0h2-2---2---2---0----0h2-2---2---0-|


Chorus (fd = feedback)

e|-------------------|-------------------------|
B|-------------------|-------------------------|
G|-------------------|-------------------------|
D|-------------------|-------------------------|
A|-------------------|-------------------------|
E|-0h2~~~~~~~2fd~~~~~|-~~~~~~~~~~~~~~~~~~2b3.5~|

e|---------------------|-----------------------|
B|---------------------|-----------------------|
G|---------------------|-----------------------|
D|---------------------|-----------------------|
A|---------------------|-----------------------|
E|-~~~~~~~~~~~~~~~~~~~~|-(2)r3~~~~-b3.5(2)~~~~-|

Verse 2

(So, woman, come inside...)
Just bass

(Nothing really bothers her...)
e|---------------------------------------------|
B|------7----------7-----------9------------9\-|
G|----------7---------7--------------9---------|
D|----7----------7-----------9----9------9-----|
A|-5----------5----------5/7-------------------|
E|---------------------------------------------|

(I will move away from here...)
e|-------------------------|-----------------------------|
B|-------------------------|-----------------------------|
G|-------------------------|-----------------------------|
D|-------4---4-------------|-----------------------------|
A|-4---4---4-----4---4---4-|---4---4-----4-------4-----4-|
E|-0h2---------0---2-2-0---|-2---2-2p0-0---0-2-2-2p0-0---|
(pm)

e|-----------------------------|-----------------------------|
B|-----------------------------|-----------------------------|
G|-----------------------------|-----------------------------|
D|-------------4---------------|-----------------------------|
A|---4---4---------4---4-----4-|---4---4---4---4---4--4--0-0-|
E|-2---2-2p0-0---0---2-2p0-0---|-2-2-2-2---2---2---2--2--0-0-|

(Things have never been so swell...)
e|-----------------------|------------------------------|
B|-7---7----7---7--7---7-|-9---9--9--9--9--9---9-9-9-9\-|
G|-7---7----7---7--7---7-|-9---9--9--9--9--9---9-9-9-9\-|
D|-7---7----7---7--7---7-|-9---9--9--9--9--9---9-9-9-9\-|
A|-5---5----5---5--5---5-|-7---7--7--7--7--7---7-7-7-7\-|
E|-----------------------|------------------------------|

Pre-Chorus

(hey....)
e|------------------------------------|
B|------------------------------------|
G|------------------------------------|
D|-4---4---4---4---4----4---4---4---4-| x10
A|-4---4---4---4---4----4---4---4---4-|
E|-0h2-2---2---2---0----0h2-2---2---0-|

Chorus

(You know you're right)
e|-------------------------------|-----------------------|
B|---------------------------5b6-|-~~~~~~~~~/8b10-----8\-|
G|-------------------------------|-----------------------|
D|-------------------------------|-----------------------|
A|-------------------------------|-----------------------|
E|-0h2~~~~~-2~~~-0-0---2-2~~~----|-----------------------|

e|--------------------------|---------------------------|
B|-\2-----------------------|---------------------------|
G|--------------------------|---------------------------|
D|--------------------------|---------------------------|
A|--------------------------|---------------------------|
E|----2--0-0---2-2--2p0-0-0-|-0h2-2-2--2-2--2-2-2-2-2p0-|

e|-----------------------|--------------------|----5b6----------|
B|-----------------5b7~~-|-0------------------|----5b7~~~~--3-4-|
G|-----------------------|-----3--------4-3-4-|-3---------------|
D|-----------------------|--------------------|-----------------|
A|-----------------------|--------------------|-----------------|
E|-0h2-2--2--0-0---------|--------------------|-----------------|

e|---------------|---------------|---------------|---------------|
B|---5b7~~-------|---5b7~~-------|---5b7~~-------|---5b7~~-------|
G|-3-------4-3-4-|-3-------4-3-4-|-3-------4-3-4-|-3-------4-3-4-|
D|---------------|---------------|---------------|---------------|
A|---------------|---------------|---------------|---------------|
E|---------------|---------------|---------------|---------------|

e|---------------|---------------|----------------------------|
B|---5b7~~-------|---5b7~~-------|----5b7~~~~~(5)fd~~r5p0-0fd-|
G|-3-------4-3-4-|-3-------4-3-4-|-3--------------------------|
D|---------------|---------------|----------------------------|
A|---------------|---------------|----------------------------|
E|---------------|---------------|----------------------------|

e|--------------------------|----------------|------------|
B|-(fd.)~~~~~~~~------------|----------------|------------|
G|--------------------------|----------------|------------|
D|---------------0fd.~~~~~~-|----------------|------------|
A|--------------------------|----------------|------------|
E|--------------------------|-2---2fd~~~~~~~~|~~~~~~~~~~~-|

Outro

e|-------x---------|-------x--x-----x-|--------x------x-|
B|-----x---x-----x-|-----x------x-----|-----x-----------|
G|-x-----------x---|-x------------x---|-x---------x-----|
D|-----------------|------------------|-----------------|
A|-----------------|------------------|-----------------|
E|-0h2-------------|-0h2--------------|-0h2-------------|

e|---------x---------x-|------------------|
B|-------x---------x---|------------------|
G|-x-------------------|-x----------------|
D|---------------------|------------------|
A|---------------------|------------------|
E|-0h2-----------------|-0h2--------------|


Nirvana kicks ass. Enjoy.
Artist: Nirvana
Title: You Know You’re Right
Album: Nirvana
Tuning: Down half step (Eb, Bb, Gb, Db, Ab, Eb)

Tabbed by: Tony Goodwin

Legend:
* - Pick strings between the bridge and tailpiece with picking hand, while plucking and
on notes on 6th string with the fretting hand.
P.M. – Palm mute
h – Hammer on
p – Pick off
b - Bend
~ - Vibrato
__ - Tremolo picking

-Intro-
Gtr. 1 (Clean)
*
E|-----------x--------------x-----|-----------x--------------x----|
B|-------x------------------------|-------x--------x--------------|
G|--x-----------x--------x-----x--|--x-----------x-------x-----x--|
D|--------------------------------|-------------------------------|
A|--------------------------------|-------------------------------|
E|--0h2-------------0h2-----------|--0h2-----------0—(0)h2--------|

E|-----------x-----------------x-------|-----------x--------------|
B|-------x--------x--------x-----------|-------x------------------|
G|--x-----------x-------x---------x-x--|--x-----------------------|
D|-------------------------------------|--------------------------|
A|-------------------------------------|--------------------------|
E|--0h2---------------0h2--------------|--0h2---------------------|

P.M.---------------------------------------------------------------------------|
E|-------------------------------------|---------------------------------------|
B|-------------------------------------|---------------------------------------|
G|-------------------------------------|---------------------------------------|
D|-----------4----4--------------------|---------------------------------------|
A|--4----4------4-------4------4----4--|----4------4-----4------------4-----4--|
E|--0h2---------------0----2---2--0----|--2----2---2p0-0-----0-2--2---2p0-0----|

P.M.----------------------------------------------------------------------------|
E|---------------------------------------|--------------------------------------|
B|---------------------------------------|--------------------------------------|
G|---------------------------------------|--------------------------------------|
D|-----------------4---------------------|--------------------------------------|
A|----4------4-----------4------4-----4--|-----------4-----4-----4------4----4--|
E|--2----2---2h0-0-----0----2---2p0-0----|--0-2--2---2p0-0-----0----2---2p0--0--|

-Verse-
P.M.----------------------------------------------------------------------------|
E|---------------------------------------|--------------------------------------|
B|---------------------------------------|--------------------------------------|
G|---------------------------------------|--------------------------------------|
D|---------------------------------------|----------------4---------------------|
A|--4----4---4-----4-----4------4-----4--|----4------4----4-----4------4-----4--|
E|--0h2------2p0-0-----0----2---2p0-0----|--2----2---2--0----------2---2p0-0----|

P.M.-------------------------------------------------------------------------| w/dist.
E|---------------------------------------|-----------------------------------|
B|---------------------------------------|-----------------------------------|
G|---------------------------------------|-----------------------------------|
D|---------------------------------------|-----------------------------------|
A|-----------------4------------4-----4--|----4------4--4-4-----4---4---0-0--|
E|--0h2--2---2p0-0-----0-2--2---2p0-0----|--2----2---2--2-2-----2---2---0-0--|

Rhy. Fig. 1 End Rhy. Fig. 1
E|-------------------------|------------------------------------|
B|--7---7---7----7--7---7--|--9--9---9--9-9-----9--9---9-9--9\--|
G|--7---7---7----7--7---7--|--9--9---9--9-9-----9--9---9-9--9\--|
D|--7---7---7----7--7---7--|--9--9---9--9-9-----9--9---9-9--9\--|
A|--5---5---5----5--5---5--|--7--7---7--7-7-----7--7---7-7--7\--|
E|-------------------------|------------------------------------|

Dist. Off
Let ring-------------------------------------------------|
E|-------------------------------|-----------------------|
B|-------------------------------|-----------------------|
G|-----------4-------------------|-----------------------|
D|----------------------------4--|--4---4----4--4---4----|
A|-------4-------4---4-4--4------|-----------------------|
E|--0h2--------------------------|-----------------------|

E|-----------------------------|------------------------------------|
B|-----------------------------|------------------------------------|
G|-----------------------------|------------------------------------|
D|--4---4----------------------|------------------------------------|
A|-----------------------------|--4----4---4--4---4--4--4--4--4-----|
E|----------0h2-2--2---2h0--0--|--0h2--2---2--2---2--2--2--2--2--0--|

Let ring-----------------------| let ring--------|
w/dist.
E|-------------------------------|-------------------------------|
B|---------7---------------7-----|-----------9-------------------|
G|-------------7-----------------|-----------9---9---------------|
D|-----7---------------7---------|---^-----------9---------^-----|
A|--5---------------5---------5--|--5/7--7----------7-7---7/12\--|
E|-------------------------------|-------------------------------|

-Pre-Chorus-
Rhy. Fig. 2 End Rhy. Fig. 2
E|---------------------------------|---------------------------------|
B|---------------------------------|---------------------------------|
G|---------------------------------|---------------------------------|
D|--4----4---4--4---4----4---4--4--|--4----4---4--4---4----4---4--4--|
A|--4----4---4--4---4----4---4--4--|--4----4---4--4---4----4---4--4--|
E|--0h2--2---2--0---0h2--2---2--0--|--0h2--2---2--0---0h2--2---2--0--|

Gtr. 1: w/Rhy. Fig. 2

Gtr. 1: w/Rhy. Fig. 1

-Chorus-
~~~~~~~~~~~
E|---------------------|--------------|-------|-------------------|
B|---------------------|--------------|-------|-------------------|
G|---------------------|--------------|-------|-------------------|
D|---------------------|--------------|-------|-------------------|
A|---------------------|--------------|-------|-------------------|
E|--0h2-----------(2)--|--------(2)b--|--(2)--|--(2)---(2)---(2)--|

-Verse-
Gtr. 1 (Tacet)
E|-----------------------------------------|-----------------------------------------|
B|-----------------------------------------|-----------------------------------------|
G|-----------------------------------------|-----------------------------------------|
D|-----------------------------------------|-----------------------------------------|
A|-----------------------------------------|-----------------------------------------|
E|--0-2-2-2---2-0-0-0---0-2-2-2---2-0-0-0--|--0-2-2-2---2-0-0-0---0-2-2-2---2-0-0-0--|

E|-----------------------------------------|----------------------------------------|
B|-----------------------------------------|----------------------------------------|
G|-----------------------------------------|----------------------------------------|
D|-----------------------------------------|----------------------------------------|
A|-----------------------------------------|----------------------------------------|
E|--0-2-2-2---2-0-0-0---0-2-2-2---2-0-0-0--|--0-2-2-2---2-0-0-0---0-2-2-2---2-0--0--|

Gtr. 2 (Tacet)
E|-------------------------------|------------------------------|
B|---------7---------------7-----|-----------9--------------9\--|
G|-------------7--------------7--|----------------9-------------|
D|-----7---------------7---------|---^---9------9-------9-------|
A|--5---------------5------------|--5/7-------------------------|
E|-------------------------------|------------------------------|

P.M.----------------------------------------------------------------------|
E|-----------------------------------|------------------------------------|
B|-----------------------------------|------------------------------------|
G|--------4--------------------------|------------------------------------|
D|-----------------------------------|------------------------------------|
A|-------------4-----4------4-----4--|--4------4----4-----4------4-----4--|
E|--0h2------2-----0----2---2p0-0----|--0h2----2--2-----0----2---2p0-0----|

P.M.-----------------------------------------------------------------| w/dist.
E|-----------------------------------|-------------------------------|
B|-----------------------------------|-------------------------------|
G|---------4-------------------------|-------------------------------|
D|---------------------------4----4--|-------------------------------|
A|--------------4-----4---------4----|----4------4----4-----4--4--0--|
E|--0h2-------2-----0----2-----------|--2----2---2----2-----2--2--0--|

Gtr. 1: Rhy. Fig. 1

-Pre-Chorus-
Gtr. 1: w/Rhy. Fig. 2 (2 times)

Gtr. 1: w/Rhy. Fig. 1

-Chorus-
~~~~ ~~ ~~~
E|------------------------------|------------------|
B|--------------------------5b--|--5b--/--8b---8\--|
G|------------------------------|--__-----__-------|
D|------------------------------|------------------|
A|------------------------------|------------------|
E|--0h2----2--0-0----2--2-------|------------------|

E|-----------------------------------|-------------------------------------|
B|--\2-------------------------------|-------------------------------------|
G|-----------------------------------|-------------------------------------|
D|-----------------------------------|-------------------------------------|
A|-----------------------------------|-------------------------------------|
E|------2-----0-0----2--2---2p0-0-0--|--0h2--2---2--2-2----2--2---2-2-2p0--|

E|--------------------------|--------------------|-------5b-------------|
B|----------------------5b--|--0-----------------|-------5b---5b--------|
G|--------------------------|-----3-----4--3--4--|--3-------------3--4--|
D|--------------------------|--------------------|----------------------|
A|--------------------------|--------------------|----------------------|
E|--0h2--2---2--0-0---------|--------------------|----------------------|

E|---------------------|--------------------|-----------------------|
B|------5b-------------|-------5b-----------|-------5b--------------|
G|--3---------4--3--4--|--3--------4--3--4--|--3-----------4--3--4--|
D|---------------------|--------------------|-----------------------|
A|---------------------|--------------------|-----------------------|
E|---------------------|--------------------|-----------------------|

~~~~~~ ~~~~~ ~~~~~
E|-----------------------|----------------------|----------------------|----------|
B|-------5b-----5--------|-------5b-------------|-------5b-------------|------5b--|
G|--3\-------------3--4--|--3\---------4--3--4--|--3\---------4--3--4--|--3-------|
D|-----------------------|----------------------|----------------------|----------|
A|-----------------------|----------------------|----------------------|----------|
E|-----------------------|----------------------|----------------------|----------|

E|---------------------|----------|-----------|
B|--(5)---(5)p0---(0)--|----------|-----------|
G|---------------------|----------|-----------|
D|---------------------|-----(0)--|-----------|
A|---------------------|----------|------(2)--|
E|---------------------|----------|--2--------|

-Outro-
E|-----------x------------x--|-----------x-----x----------x--|-----------x-------x--|
B|-------x------x------------|-------x-------------x---------|-------x--------------|
G|--x-----------------x------|--x---------------------x------|--x------------x------|
D|---------------------------|-------------------------------|----------------------|
A|---------------------------|-------------------------------|----------------------|
E|--0h2----------------------|--0h2--------------------------|--0h2-----------------|

E|-----------x---------x--|-------|
B|-------x---------x------|-------|
G|--x---------------------|--x----|
D|------------------------|-------|
A|------------------------|-------|
E|--0h2-------------------|--0h2--|

-Lyrics-
I will nev – er both – er you.
I will nev – er prom – ise to.__
I will nev – er fol – low you.
I will nev – er both – er you.

Nev – er speak a word_ a – gain.__
I will crawl a – way- for good.

I will move a – way_ from here.
You won’t be a – fraid_ of fear.
And I thought I was fooled in – to this,
And al – ways knew it would come_ to this.

Things have nev –er been_ so swell.
Ihave nev – er felt_ or failed.

Hey.____________________
Hey.____________________
You know you’re__ right.__
You know you’re__ right.__
You know you’re__ right.__

So, wom – an, come_ in – side.
I no long – er have_ to hide._
Let’s talk a – bout some – one else._
Steam – ing Sue be – gins_ to melt._

Noth – ing real – ly both – ers her,
She just wants to love_ her – self.__

I will move a – way from here.
You won’t be a – fraid_ of fear.__
And I thought I was fooled in – to this,
And al – ways knew it’d come_ to this.__

Things have nev –er been__ so swell.__
I have nev – er felt__ or failed.

Hey.____________________
Hey.____________________
Hey.____________________
You know you’re__ right.__
You know you’re__ right.__
You know you’re__ right.__
You know you’re__ right.__
You know you’re__ right.__
You know you’re__ right.__
You know you’re__ right.__
You know you’re__ right.__
You know you’re__ right.__
You know you’re__ right.__
You know you’re__ right.__
You know you’re__ right.__
You know you’re__ right.__
You know you’re__ right.__
You know you’re__ right.__
You know you’re__ right.__
You know you’re__ right.__
Song info
You Know Youre Right
Nirvana
2001
  • Rock
  • Grunge
Alternative tracks
Similar songs
Outshined - Soundgarden
Burden In My Hand - Soundgarden
Pretty Noose - Soundgarden
Drain You - Nirvana
Oh The Guilt - Nirvana

Hi! Hope you enjoy backing track experience.
If you want to help us in the development of the project, feel free to donate!