Hella Good - No Doubt
00:00 / 00:00
Tabs and lyrics
Tunning: Standard (E A D G B e)
There's distorted bass as an intro, but I can make sound alright (well, kinda)
if I just crank down the treble on my guitar.

[Intro]

(Bass)
e||----------------------|
B||----------------------|
G||----------------------| x2
D||----------------------|
A||----------------------|
E||-3x3x3-4---4x4x4-3----|

[Verse]

"The waves keep on crashing on me for some reason"

Guitar
e|-------------------|
B|-15x15x15-16-------|
G|-12x12x12-13-------|
D|-12x12x12-13-------|
A|-------------------|
E|-------------------|

"But your love keeps on coming like a thunderbolt
Come here a little closer
Cause I wanna see you baby, real close up"

[Chorus]

"You've got me feeling hella good
So let's just keep on dancing
You hold me like you should
So I'm gonna keep on dancing"

(Bass)
e||----------------------|
B||----------------------|
G||----------------------|
D||----------------------|
A||----------------------|
E||-3x3x3-4---4-4-3------|

(Bass)
e||-------------------------|
B||-------------------------|
G||-------------------------|
D||-------------------------|
A||-----------4-2-4-4-2-----|
E||-3x3x3-4-------------4-3-|


[Verse]

"Your performance deserving a standing ovation"

Guitar
e|-------------------|
B|-15x15x15-16-------|
G|-12x12x12-13-------|
D|-12x12x12-13-------|
A|-------------------|
E|-------------------|

"And who would have thought it'd be the two of us
So don't wake me if I'm dreaming
'Cause I'm in the mood come on and give it up


[Chorus]

"You've got me feeling hella good
So let's just keep on dancing
You hold me like you should
So I'm gonna keep on dancing"

(Bass)
e||----------------------|
B||----------------------|
G||----------------------|
D||----------------------|
A||----------------------|
E||-3x3x3-4---4-4-3------|

(Bass)
e||-------------------------|
B||-------------------------|
G||-------------------------|
D||-------------------------|
A||-----------4-2-4-4-2-----|
E||-3x3x3-4-------------4-3-|


[Solo]

e|----------------------------------------------------------------|
B|-13-15-13p11h13-11---------------11----13-------9-8-9-11-9-8----|
G|-------------------12-12-10---10----12----12--------------------|
D|----------------------------------------------------------------|
A|----------------------------------------------------------------|
E|----------------------------------------------------------------|


e|-----------------------------|
B|-13-15-13p11h13-11-----------|
G|-------------------12-12-10--|
D|-----------------------------|
A|-----------------------------|
E|-----------------------------|


[Chorus]

"You've got me feeling hella good
So let's just keep on dancing
You hold me like you should
So I'm gonna keep on dancing"

(Bass)
e||----------------------|
B||----------------------|
G||----------------------|
D||----------------------|
A||----------------------|
E||-3x3x3-4---4-4-3------|

(Bass)
e||-------------------------|
B||-------------------------|
G||-------------------------|
D||-------------------------|
A||-----------4-2-4-4-2-----|
E||-3x3x3-4-------------4-3-|

That's pretty much my take on Hella Good, so enjoy!

************************************

| x Dead note
| h Hammer-on
| p Pull-off

************************************
Tunning: Standard (E A D G B e)
Drum Intro

At about (0:08)[start intro]
e|------------------------------------------------------|
B|------------------------------------------------------|
G|------------------------------------------------------|
D|------------------------------------------------------| 2x
A|------------------------------------------------------|
E|---3-3-3-0-3-4---4-4-4-0-4-3--------------------------|

(The waves keep on crashing on me for some reason)
e|----10-10-10-10-10-11----11-11-11-11-11-10------------|
B|----8--8--8--8--8--9-----9--9--9--9--9--8-------------|
G|----7--7--7--7--7--8-----8--8--8--8--8--9-------------|
D|------------------------------------------------------|
A|------------------------------------------------------|
E|------------------------------------------------------|

(But your love keeps on coming like a thunderbolt)
e|----10-10-10-10-10-11----11-11-11-11-11-10------------|
B|----8--8--8--8--8--9-----9--9--9--9--9--8-------------|
G|----7--7--7--7--7--8-----8--8--8--8--8--9-------------|
D|------------------------------------------------------|
A|------------------------------------------------------|
E|------------------------------------------------------|

(Come here a little closer)
e|----10-10-10-10-10-11----11-11-11-11-11-10------------|
B|----8--8--8--8--8--9-----9--9--9--9--9--8-------------|
G|----7--7--7--7--7--8-----8--8--8--8--8--9-------------|
D|------------------------------------------------------|
A|------------------------------------------------------|
E|------------------------------------------------------|

('Cause I wanna see you, baby, real close up)
e|----10-10-10-10-10-11----11-11-11-11-11-10------------|
B|----8--8--8--8--8--9-----9--9--9--9--9--8-------------|
G|----7--7--7--7--7--8-----8--8--8--8--8--9-------------|
D|------------------------------------------------------|
A|------------------------------------------------------|
E|------------------------------------------------------|

(CHORUS)
While Gwen sings play
e|------------------------------------------------------|
B|------------------------------------------------------|
G|------------------------------------------------------|(2x)
D|------------------------------------------------------|
A|------------------------------4-2-4-4-2---------------|
E|--3-3-3-4---4-4-3---3-3-3-4-------------4-3-----------|

You've got me feeling hella good
So let's just keep on dancing
You hold me like you should
So I'm gonna keep on dancing

[VERSE 2](same guitar pattern as first)
You've got me feeling hella good
So let's just keep on dancing
You hold me like you should
So I'm gonna keep on dancing

[Chorus]
(Same as first except double)
e|------------------------------------------------------|
B|------------------------------------------------------|
G|------------------------------------------------------| 4x
D|------------------------------------------------------|
A|------------------------------4-2-4-4-2---------------|
E|--3-3-3-4---4-4-3---3-3-3-4-------------4-3-----------|

You've got me feeling hella good
So let's just keep on dancing
You hold me like you should
So I'm gonna keep on dancing
You've got me feeling hella good
So let's just keep on dancing
You hold me like you should
So I'm gonna keep on dancing

[Solo]
e|------------------------------------------------------|
B|-13-13^-11-13^-11^------------------------------------|
G|--------------------12-12-10--------------------------| 2x
D|------------------------------------------------------|
A|------------------------------------------------------|
E|------------------------------------------------------|
uh, yeah yeah

[After Solo]
Only drums and keyboards
If you want to play it, just play something like the intro

[Chorus]
(Same as first except double)
e|------------------------------------------------------|
B|------------------------------------------------------|
G|------------------------------------------------------| 4x
D|------------------------------------------------------|
A|------------------------------4-2-4-4-2---------------|
E|--3-3-3-4---4-4-3---3-3-3-4-------------4-3-----------|

You've got me feeling hella good
So let's just keep on dancing
You hold me like you should
So I'm gonna keep on dancing
You've got me feeling hella good
So let's just keep on dancing
You hold me like you should
So I'm gonna keep on dancing

(AS Gwen says UH UH UH and Keep on dancing)
play
e|------------------------------------------------------|
B|------------------------------------------------------|
G|------------------------------------------------------| 4x
D|------------------------------------------------------|
A|------------------------------4-2-4-4-2---------------|
E|--3-3-3-4---4-4-3---3-3-3-4-------------4-3-----------|

[Outro]
Just drums and keyboards
Song info
Hella Good
No Doubt
2001
  • Electronic
  • Hip Hop
  • House
Alternative tracks
Similar songs
Lady - Modjo
Ghost - Alan Walker
A Forest - The Cure

Hi! Hope you enjoy backing track experience.
If you want to help us in the development of the project, feel free to donate!