Stand By Me - Oasis
00:00 / 00:00
Tabs and lyrics
Tunning: Standard (E A D G B e)
[Intro|

(Chords same as verse)
E|----------|
B|----------|
G|----------|
D|----------|
A|----------|
E|-12/3-----|

E|----------------------------------------------------|
B|----------------------------------------------------|
G|------12----12h14-14b16r14-12-14b16r14-12--12-12-11-|
D|12h14----14-----------------------------------------|
A|----------------------------------------------------|
E|----------------------------------------------------|

E|-----------------------------------------------------------|
B|-----------------------------------------------------------|
G|------12----12---------12----12h14-14b16r14-12-14b16r14-12-|
D|12h14----14------12h14----14-------------------------------|
A|-----------------------------------------------------------|
E|-----------------------------------------------------------|


[Verse]

G,B11,C,C,D
E|3--0--0-0-2-|
B|3--0--1-1-3-|
G|0--2--0-0-2-|
D|0--1--2-0-0-|
A|2--2--3-2-x-|
E|3--0--3-0-x-|


[Pre-chorus]

C,D,G,D,Em,A,D
E|0-2-3-2--0-0-2-|
B|1-3-3-3--0-2-3-|
G|0-2-0-2--0-2-2-|
D|2-0-0-0--2-2-0-|
A|3-x-2-x--2-0-x-|
E|3-x-3-x--0-x-x-|


[Chorus]

G,D,Am,C,F,D,G
E|3-2--0-0-1-2-3-|
B|3-3--1-1-1-3-3-|
G|0-2--2-0-2-2-0-|
D|0-0--2-2-3-0-0-|
A|2-x--0-3-3-x-2-|
E|3-x--x-3-1-x-3-|


[Solo] Em,D,C
E|-----------------------|
B|-----------------------|
G|11h12p11---------------|
D|---------14-12h14-12---|
A|-----------------------|
E|-----------------------| x3

Order|
Intro
Verse x2
Pre-chorus
Verse x2
Pre-chorus
Chorus x4
Verse x2
Pre-chorus
Chorus x4
Solo
Pre-chorus
Chorus x4



************************************

| x Dead note
| h Hammer-on
| p Pull-off
| r Release
| b Bend
| / Slide up

************************************
Tunning: Standard (E A D G B e)
"Stand By Me"
Performed by Oasis
>From the album "Be Here Now" on Sony/Creation records
Music by: francis caballero
Lyrics by: francis caballero
-------------

Chords used:

EADBGe
G (3x0033)
B7add11 (x21200), while one guitar plays "B7add11", the other plays B7
(x24242)
C (x32010)
C/B (x2x010), or try this as G/B (x20033) if you'd like
D (xx0232)
D/F# (2x0232), or perhaps you'd like D5/F# (2x02xx) or (2x023x) better
Em (022000)
A (x02220)
F (x33211)




NOTE: When the one guitar plays a B7addE, it's played something like this:

B7add11
e|-----------0--------------------------------------|
B|--0---0------0---0--------------------------------|
G|--2---2--2-----2-2--------------------------------|
D|--1---1--1-------1--------------------------------|
A|--2---2----------2--------------------------------|
E|--------------------------------------------------|


[Intro]

e|--------------------------------------------------|
B|--------------------------------------------------|
G|--------------------------------------------------|
D|--------------------------------------------------|
A|--------------------------------------------------|
E|--12~~/-3~~~~~~~~~~~~~~-(amplifier feedback here)-|

G B7add11 C C/B D G
e|------------------------------------------------------------------------------|
B|------------------------------------------------------------------------------|
G|----------------------------12--14--14b16r-14b16r14--12h14--12--12~~~~12--12--|
D|----------------------12h14---------------------------------------------------|
A|------------------------------------------------------------------------------|
E|------------------------------------------------------------------------------|

B7add11 C C/B D
e|------------------------------------------------------------------------------|
B|------------------------------------------------------------------------------|
G|--11----------12----12~~---------12h14-12--14bbb16---14b16r14--12h14--12-12~>-|
D|--------12h14----14--------12h14----------------------------------------------|
A|------------------------------------------------------------------------------|
E|------------------------------------------------------------------------------|


[Verse 1]

G B7add11 C
Made a meal and threw ...
C/B D
Got a lot of ...
G B7add11
Said I would and I'll ...
C C/B D
Before my heart ...


[Pre-Chorus]

C D
So what's the ...
e|---------------------------------------------------------------------------|
B|---------------------------------------------------------------------------|
G|-14>-----------------------------------------------------------------------|
D|--x-------------------------------5--7-------------------------------------|
A|-12>--0--2--3----------------5s7--------5----------------------------------|
E|---------------------------------------------------------------------------|

G D/F# Em
Sing me something ...
e|---------------------------------------------------------------------------|
B|---------------------------------------------------------------------------|
G|---------------------------------------------------------------------------|
D|-----5---------------------------------------------------------------------|
A|-5h7-----------------------------------------------------------------------|
E|--------3----------2---------0---------------------------------------------|

A C
The cold and wind and rain ...
e|---------------------------------------------------------------------------|
B|---------------------------------------------------------------------------|
G|---------------------------------------------------------------------------|
D|---------------------------------------------------------------------------|
A|-----0-------------------------------2--3----------------------------------|
E|---------------------------------------------------------------------------|

D
and go away
e|---------------------------------------------------------------------------|
B|---------------------------------------------------------------------------|
G|---------------------------------------------------------------0--0h2--0---|
D|----------------------------------------------------------0h2--------------|
A|-----------5---------------------------------------------------------------|
E|---------------------------------------------------------------------------|


[Verse 2]

Times are hard when things ...
I've found a key ....
e|-----------------------------------------------------------------------------|
B|-----------------------------------------------------------------------------|
G|--------------------------------------12h14--12--14b16r14--12h14--12--12~~~>-|
D|-------------------------------12h14-----------------------------------------|
A|-----------------------------------------------------------------------------|
E|-----------------------------------------------------------------------------|
Maybe you and I ....
The things we find ...


[Pre-Chorus]
(Guitars 1 and 2 play the same thing as previous pre-chorus)

So what's the matter ....
e|-------------------------------------------------------------------------|
B|-------------------------------------------------------------------------|
G|---------------------------------------12h14-12----12-----14b16r14-12----|
D|---------------------------------12h14----------14--------------------14-|
A|-------------------------------------------------------------------------|
E|-------------------------------------------------------------------------|

(G)
e|----------------------------|
B|----------------------------|
G|-14b16r14-12----12~~~~~-----|
D|-------------14-------------|
A|----------------------------|
E|----------------------------|


[Chorus]

G D Am
Stand by me, ...
e|---------------------------------------|
B|---------------------------------------|
G|--------------14b16r14-12--14~~b16--12-|
D|---------------------------------------|
A|---------------------------------------|
E|---------------------------------------|

C F D/F# G
the way it's ...
e|-------------------------------------------|
B|-------------------------------------------|
G|-------------------------------------------|
D|-------------------------------------------|
A|----------------------3-x-x----------------|
E|----------------------------1-x-x-2-x-x-3--|

G D Am
Stand by me, ...
e|---------------------------------------|
B|---------------------------------------|
G|--------------14b16r14-12--14~~b16--12-|
D|---------------------------------------|
A|---------------------------------------|
E|---------------------------------------|

C F D/F# G
the way ...
e|-------------------------------------------|
B|-------------------------------------------|
G|-------------------------------------------|
D|-------------------------------------------|
A|----------------------3-x-x----------------|
E|----------------------------1-x-x-2-x-x-3--|

G D Am
Stand by me, ...
e|---------------------------------------|
B|---------------------------------------|
G|--------------14b16r14-12--14~~b16--12-|
D|---------------------------------------|
A|---------------------------------------|
E|---------------------------------------|

C F D/F# G
the way ...
e|-------------------------------------------|
B|-------------------------------------------|
G|-------------------------------------------|
D|-------------------------------------------|
A|----------------------3-x-x----------------|
E|----------------------------1-x-x-2-x-x-3--|

G D Am
Stand by me, nobody ...
e|-------------------------------------------------------------------|
B|-------------------------------------------------------------------|
G|-------12-11--14b16r14-12--14~~b16--12--14b16r14-12--14~~b16--12---|
D|-12h14-------------------------------------------------------------|
A|-------------------------------------------------------------------|
E|-------------------------------------------------------------------|

C D G
Nobody knows ...
e|--------------------------------------------------------------------|
B|--------------------------------------------------------------------|
G|-14b16r14-12--14~~b16--12--12---12--12/11--11/9--9/7--7--------0----|
D|---------------------------------------------------------------0----|
A|--------------------------------------------------------------------|
E|--------------------------------------------------------------------|

(G)
(If you're...)
e|-------------------------|
B|-------------------------|
G|----------0--------------|
D|-------0-----------------|
A|--2h3--------3--2--0-----|
E|----------------------3--|


[Verse 3]

If you're leaving will ...
I'm tired of talking ...
e|---------------------------------------------------------------------------|
B|---------------------------------------------------------------------------|
G|-----------------------------------------------12--14b16r14-12------12~~~>-|
D|---------------------------------------12--14-------------------14---------|
A|------------------------------10-12/14-------------------------------------|
E|---------------------------------------------------------------------------|
There is one thing I ...
My heart will ...
e----------------------------------------------------|
B----------------------------------------------------|
G-------------------------------14b16-----b16r14--12-|
D----------------------------------------------------|
A----------------------------------------------------|
E----------------------------------------------------|
C D
So what's the ...
e-----------------------------------|
B-----------------------------------|
G-12~~~~~~~~~~~-----12--12--12h14---|
D-----------------------------------|
A-----------------------------------|
E-----------------------------------|
Sing me something .... G
e---------------------------------------------------------------------------|
B-------------------------------------------------------------12------------|
G----------------------12--14---12----12----------12----------------12------|
D---------------12h14--------------14-------12h14-------12h14----12---------|
A---------------------------------------------------------------------------|
E---------------------------------------------------------------------------|


[Chorus]

G D Am
Stand by me, ...
e|---------------------------------------|
B|---------------------------------------|
G|--------------14b16r14-12--14~~b16--12-|
D|---------------------------------------|
A|---------------------------------------|
E|---------------------------------------|

C F D/F# G
the way it's ...
e|-------------------------------------------|
B|-------------------------------------------|
G|-------------------------------------------|
D|-------------------------------------------|
A|----------------------3-x-x----------------|
E|----------------------------1-x-x-2-x-x-3--|

G D Am
Stand by me, ...
e|---------------------------------------|
B|---------------------------------------|
G|--------------14b16r14-12--14~~b16--12-|
D|---------------------------------------|
A|---------------------------------------|
E|---------------------------------------|

C F D/F# G
the way it's ...
e|-------------------------------------------|
B|-------------------------------------------|
G|-------------------------------------------|
D|-------------------------------------------|
A|----------------------3-x-x----------------|
E|----------------------------1-x-x-2-x-x-3--|

G D Am
Stand by me, ...
e|---------------------------------------|
B|---------------------------------------|
G|--------------14b16r14-12--14~~b16--12-|
D|---------------------------------------|
A|---------------------------------------|
E|---------------------------------------|

C F D/F# G
the way it's ...
e|-------------------------------------------|
B|-------------------------------------------|
G|-------------------------------------------|
D|-------------------------------------------|
A|----------------------3-x-x----------------|
E|----------------------------1-x-x-2-x-x-3--|

G D Am
Stand by me, nobody ...
e|-------------------------------------------------------------------|
B|-------------------------------------------------------------------|
G|-------12-11--14b16r14-12--14~~b16--12--14b16r14-12--14~~b16--12---|
D|-12h14-------------------------------------------------------------|
A|-------------------------------------------------------------------|
E|-------------------------------------------------------------------|

C D (Em)
Nobody knows The ...
e|---------------------------------------------------------|
B|---------------------------------------------------------|
G|-14b16r14-12--14~~b16--12--12---12--12/11--11/9--9/7--7--|
D|---------------------------------------------------------|
A|---------------------------------------------------------|
E|---------------------------------------------------------|


[Bridge/Guitar Solo]

Em D C
The way ...
e|-------------------------------------------------------|
B|-------------------------------------------------------|
G|----11h12--11------------------------------------------|
D|---------------14--12--12h14--12--12-------------------|
A|-------------------------------------------------------|
E|-------------------------------------------------------|
Em D C
Baby, I ...
e-------------------------------------------------------------|
B-------------------------------------------------------------|
G-11h12--11----------------11--12----14b16r14-12-14b16r14-12--|
D------------14--12----12-------------------------------------|
A-------------------------------------------------------------|
E-------------------------------------------------------------|

Em D C
And don't ...
e|-------------------------------------------------------------|
B|-----------------------------------------faint:--------------|
G|-11h12--11------------------------12--12--------12-------12--|
D|------------14--12--12h14--12--14---------12h14----12h14-----|
A|-------------------------------------------------------------|
E|-------------------------------------------------------------|

cold and wind and ...
They only seem to ... (G)
e|---------------------------------------------------------------------------|
B|---------------------------------------------------------------------------|
G|-----------------------------12-12/11-11/9-9/7-7/5-5/4-4/2-2p0-0-2-2bbb4---|
D|---------------------------------------------------------------------------|
A|---------------------------------------------------------------------------|
E|---------------------------------------------------------------------------|


[Final Chorus]

G D Am
Stand by me, ...
e|------------------------------------------|
B|------------------------------------------|
G|-------12--14---14b16r14--12--14~~b16-12--|
D|-12h14------------------------------------|
A|------------------------------------------|
E|------------------------------------------|

C F D/F# G
the way it's ...
e|-------------------------------------------------------------|
B|-------------------------------------------------------------|
G|-------------------14b16r14-12----12-14b16r14-12----12--12---|
D|-------------------------------14----------------14----------|
A|-------------------------------------------------------------|
E|-------------------------------------------------------------|

G D Am
Stand by me, ...
e|------------------------------------------|
B|------------------------------------------|
G|-------12--14---14b16r14--12--14~~b16-12--|
D|-12h14------------------------------------|
A|------------------------------------------|
E|------------------------------------------|

C F D/F# G
the way it's ...
e|-------------------------------------------------------------|
B|-------------------------------------------------------------|
G|-------------------14b16r14-12----12-14b16r14-12----12--12---|
D|-------------------------------14----------------14----------|
A|-------------------------------------------------------------|
E|-------------------------------------------------------------|

G D Am
Stand by me, ...
e|------------------------------------------|
B|------------------------------------------|
G|-------12--14---14b16r14--12--14~~b16-12--|
D|-12h14------------------------------------|
A|------------------------------------------|
E|------------------------------------------|

C F D/F# G
the way it's ...
e|-------------------------------------------------------------|
B|-------------------------------------------------------------|
G|-------------------14b16r14-12----12-14b16r14-12----12--12---|
D|-------------------------------14----------------14----------|
A|-------------------------------------------------------------|
E|-------------------------------------------------------------|

G D Am
Stand by me, nobody ...
e|-------------------------------------------------------------------|
B|-------------------------------------------------------------------|
G|-------12-11--14b16r14-12--14~~b16--12--14b16r14-12--14~~b16--12---|
D|-12h14-------------------------------------------------------------|
A|-------------------------------------------------------------------|
E|-------------------------------------------------------------------|

C D G
God only knows The way ...
e|---------------------------------------------------------------------------3-|
B|--------------------------------------------------------------------1p0--0---|
G|----------12--12/11--11/9--9/7--7/5--5/4--4/2--2p0--0--2--2bbbbb4------------|
D|-----------------------------------------------------------------------------|
A|-----------------------------------------------------------------------------|
E|-----------------------------------------------------------------------------|



************************************

b = bend (7b8 means bend the string at the 7th fret to make approximately
the note the string would make if played at the 8th fret with no bend)
r = release bend
h = hammer on
p = pull off
s = slide (a quick slide, the two notes sound almost like one note)
/ = slower slide (sounds like two separate notes)
> = play string at specified fret and slide finger(s) down the string an
unspecified distance
() = harmonics, (12) means lightly touch the string directly past the 12th
fret then pick the string
~ = vibrato (vibrate note)

************************************
Song info
Stand By Me
Oasis
2001
  • Rock
  • Alternative Rock
  • Brit Pop
Alternative tracks
Similar songs
The Nips Are Getting Bigger - Mental As Anything
When It All Comes Down - The Icicle Works
Primary - The Cure
Love To Let You Down - Life of Agony

Hi! Hope you enjoy backing track experience.
If you want to help us in the development of the project, feel free to donate!