Supersonic - Oasis
00:00 / 00:00
Tabs and lyrics
Tunning: Standard (E A D G B e)
Supersonic
Oasis


Chords used:

F#m5 (2442xx) [could also be played as F#5 (244xxx) ]
E/F#m5 (0442xx) [could also be played as E/F#5 (044xxx) ]
A5 (x0222x)
B5 (x2444x)
E (022100)
E5 (022xxx)
C#7 (x46464)
D5 (xx032x)

[NOTE: sorry, the names of some of the above chords are not right, but
I'm pretty sure that's how they're played]

[Intro]
-----
Tab:

e--------0--------------------|
B----------0------------------|
G------2-----2-------2--------|
D----4---------4-----2----1---| x3
A--4-------------0---0----2---|
E-----------------------------|

the fourth time:
b:bend
r:release

e--------0------------------------|
B----------0----------------------|
G------2-----2-------2------------|
D----4---------4-----2------------|
A--4-------------0---0--2b3r2-0---|
E-------------------------------2-|


[Verse 1]
-------
F#m E/F#m F#m A5 B5
I need to be myself
F#m E/F#m F#m A5 B5
I can't be no one else
F#m E/F#m F#m A5 B5
I'm feeling supersonic, give me gin & tonic
F#m E/F#m F#m A5 B5
you can have it all, but how much do you want it?
F#m E/F#m F#m A5 B5
You make me laugh
F#m E/F#m F#m A5 B5
Give me your autograph
F#m E/F#m F#m A5 B5
Can I ride with you in your Bee-Emm-Double-Yeww [that's BMW spelled out! :)]
F#m E/F#m F#m A5 B5
You can sail with me in my yellow submarine

[NOTE: Noel alternates the same two background fills in the verses
throughout the entire song. He has two different fills that he plays
during each B5 in the verses.

The first fill: and the second fill:

e--7------ D--------------|
B----5---- A-2-2b3r2-2----|
G------6-- E-----------2--|

[Pre-Chorus]
----------
E
You need to find out, 'cos no one's gonna tell you
F#m E/F#m F#m E/F#m F#m
what I'm on about
E
You need to find a way for what you wanna say
C#7
But before tomorrow


[Chorus]
------
D5 A5 E5 F#m5
'Cos my friend said he'd take you home
D5 A5 E5 F#m5
He sits in the corner all alone
D5 A5 E5 F#m5
He lives under a waterfall
D5 A5
Nobody can see him
E5 F#m5
Nobody can ever hear him call

Little solo-type thing used a number of times in this song:
-----------------------------------------------------------
b:bend
r:release
h:hammer on to second note with another finger, use only 1 pick stroke
p:pull-off, opposite of hammer-on, use 1 pick stroke, pull 2nd finger off
higher note to cause lower note to sound

part 1:
D5 A5 E5 F#m5
e-------------------------------------------------|
B-------------------------------------------------|
G----16b17-16-14--16-14----------14---------------|
D-----------------------16-14-16----16-14---------|
A-------------------------------------------------|
E-------------------------------------------------|

part 2:
D5 A5 E5 F#m5
e-------------------------------------------------------|
B----------------17-------------------------------------|
G----16b17-16-14----16b17r16-14--------14h16-14----14---|
D--------------------------------14h16----------16------|
A-------------------------------------------------------|
E-------------------------------------------------------|

part 3:
repeat part 1

part 4:
repeat part 2

part 5:
[NOTE: the tab below starts with the F#m5 part of part 4]
[ANOTHER NOTE: Part 5 is something that Noel only plays in live shows and
is not in the recorded version of the song.]

F#m5 E C#7
B-----------------------------------------------------------------------------|
G--14--------14h16-14----14-----16p14-16p14-16p14-16b17-16b17-16--------------|
D------14h16----------16------------------------------------------------------|
A-------------------------------------------------------------------2b3r2-0---|
E---------------------------------------------------------------------------2-|

[Verse 2]
-------
You need to be yourself
You can't be no one else
I know a girl called Elsa
She's into Alka-Seltzer
She sniffs it through a cane
on a supersonic train
And she makes me laugh
I've got her autograph
She done it with the doctor
On a helicopter
She sniffed it in a tissue
Selling the big issue

[Pre-Chorus 2]
------------
When she finds out
'cos no one's gonna tell her what I'm on about
You need find a way for what you wanna say
But before tomorrow

[Chorus]

Improvise on solo until the song fades
Tunning: Standard (E A D G B e)
This is the way I play the song, but I didn’t tab it ;)

Title: SUPERSONIC
Band: OASIS (written by Noel Gallagher)
Album: DEFINITELY MAYBE (1994)

-CHORDS USED-
F#m11-(044200)
Asus2-(x02200)
B7----(021202)
F#5---(244xxx)
E5----(022xxx)
A-----(x02220)
B-----(x24442)
F#m---(244222)
C#7---(x46464)
D-----(xx0232)
E-----(022100)
F#----(244322)


[Intro]

F#m11 Asus2 B7
e|---------0----------------------|
B|-----------0---------0------0---|
G|-------2-----2-------2------2---|
D|-----4---------4-----2------1---|3 TIMES
A|---4-------------0---0---0--2---|
E|--------------------------------|

e|--------------|
B|--------------|
G|--------------|
D|-----------4--|
A|----2b---0----|
E|--------------|

[Verse 1]

RIFF-1
e|---7-------|
B|-----5-----|
G|---------6-|
D|-----------|
A|-----------|
E|-----------|

RIFF-2
e|--------------|
B|--------------|
G|--------------|
D|-----------4--|
A|----2b---0----|
E|--------------|
F#5 E5 F#5 E5 A B
I need to be myself
F#5 E5 F#5 E5 A B
I don't need no one else
F#5 E5 F#5
I'm feeling supersonic
E5 A B
Give me gin and tonic
F#5 E5 F#5 E5 A B
You can have it all but how much do you want it
F#5 E5 F#5 E5 A B
You make me laugh
F#5 E5 F#5 E5 A B
Give me your autograph
F#5 E5 F#5
Can I ride with you
E5 A B
In your B M W
F#5 E5 F#5
You can sail with me
E5 A B
In my yellow submarine


[Bridge]

RIFF-1
e|--------------------|
B|--------------------|
G|--------------------|
D|--------------------|
A|---2-2-4-2-2-2-4-2--|
E|-0-0-0-0-0-0-0-0-0--|

RIFF-2
e|---7-------|
B|-----5-----|
G|---------6-|
D|-----------|
A|-----------|
E|-----------|

RIFF-3
e|--------------4-----------------|
B|-----6---------------6----------|
G|-4-------4--------------6---4---|
D|-6---------6------------------6-|
A|--------------------------------|
E|--------------------------------|
E5
You need to find out
F#m
Cause no-one gonna tell you what I'm on about
E5
You need to find a way
C#7
For what you wanna say

But before tomorrow


[Chorus]

RIFF-1
e|-----------------------------------|
B|-----------------------------------|
G|-----------------------------------|
D|------2--------------------2-------|
A|-2s4----4--2---0---0---2s4---4-----|
E|-------------------------------2---|
D A E F#
Cause my friend said he'd take you home
D A E F#
He sits in a corner all alone
D A E F#
He lives under a waterfall
D A E F# D A
No-body can see him nobody can ever hear him call
E F# D A
No-body can ever hear him call

Bonehead keeps repeating the chord progression D A E F#
While Noel plays the following solo


[GUITAR SOLO]

e|-------------------------------------------------------------------|
B|-------------------------------------------------------------17----|
G|--16B-16B--14---16--14----------14-------------16B--16B--14--------|
D|-----------------------16-14-16----16--14--------------------------|
A|-------------------------------------------------------------------|
E|-------------------------------------------------------------------|

e|-------------------------------------------------------------------|
B|-------------------------------------------------------------------|
G|--16b--16--14-------14h16p14-----14---16B-16B--14--16--14----------|
D|--------------14h16----------16---------------------------16-14-16-|
A|-------------------------------------------------------------------|
E|-------------------------------------------------------------------|

e|-------------------------------------------------------------------|
B|------------------------17-----------------------------------------|
G|14--------16B--16B--14------16b-16-14--------14h16p14----14--------|
D|---16-14-------------------------------14h16----------16-----------|
A|-------------------------------------------------------------------|
E|-------------------------------------------------------------------|

e|--0------------4---------------------------------------------------|
B|--0------------6---------------------------------------------------|
G|--1------------4---------------------------------------------------|
D|---------------6-----------------------------------4---------------|
A|---------------4----------------------2b-------0-------------------|
E|----------0--------------------------------------------------------|


[Verse 2]

You need to be yourself
You can't be no one else
I know a girl called Elsa
She's into Alka Seltzer
She sniffs it through a cane
On a supersonic train
And she made me laugh
I got her autograph
She done it with a doctor
On a helicopter
She's sniffin' in her tissue
Sellin' the Big Issue

[Bridge 2]
When she finds out
No-ones gonna tell her what I'm on about
You need to find a way
For what you want to say
But before tomorrow


[Outro]

D-A-E-F#
e|-------------------------------------------------------------------|
B|-------------------------------------------------------------17----|
G|--16B-16B--14---16--14----------14-------------16B--16B--14--------|
D|-----------------------16-14-16----16--14--------------------------|
A|-------------------------------------------------------------------|
E|-------------------------------------------------------------------|

e|-------------------------------------------------------------------|
B|-------------------------------------------------------------------|
G|--16b--16--14-------14h16p14-----14---16B-16B--14--16--14----------|
D|--------------14h16----------16---------------------------16-14-16-|
A|-------------------------------------------------------------------|
E|-------------------------------------------------------------------|

e|-------------------------------------------------------------------|
B|-------------------------------------------------------------------|
G|14-------------14---16b--16b--16b--16b---16bp14---14-14---14-14h16-|
D|---16-14----16---------------------------------16------------------|
A|-------------------------------------------------------------------|
E|-------------------------------------------------------------------|

e|-------------------------------------------------------------------|
B|-------------------------------------------------------------------|
G|-14----16B--16B--14--16---14----------14---------------------------|
D|-----------------------------16-14-16----16-14---16B--16B--14--16--|
A|-------------------------------------------------------------------|
E|-------------------------------------------------------------------|

e|-------------------------------------------------------------------|
B|-------------------------------------------------------------------|
G|-16b--16--14------- 14h16-------14--16B-16B--14--16--14----------14|
D|--------------14h16-------14h16-------------------------16-14-16---|
A|-------------------------------------------------------------------|
E|-------------------------------------------------------------------|

e|-------------------------------------------------------------------|
B|-------------------------------------------------------------------|
G|--------------14----------14---16b---16b-16b-16b-----16--16--0-----|
D|--16--14--16-----16-14-16------------------------------------------|
A|-------------------------------------------------------------------|
E|-------------------------------------------------------------------|

e|-------------------------------------------------------------------|
B|-------------------------------------------------------------------|
G|--14-----14---14----14--14----14-----14------14-----14-----14---14-|
D|--14h16--16---14----14--14h16-14-----14h16---14-----14h16--14---14-|
A|-------------------------------------------------------------------|
E|-------------------------------------------------------------------|

e|-------------------------------------------------------------------|
B|-------------------------------------------------------------------|
G|--14----14--14---14--14-----------14---16-16b---16b--16b----14---0-|
D|--14h16-----14---14--14h16--14----14-------------------------------|
A|-------------------------------14----------------------------------|
E|-------------------------------------------------------------------|
Repeat To
e|-------------------------------------------------------------------| Fade
B|-------------------------------------------------------------------|
G|--14----14--14---14-14-14----14----14--14----14----14--------14--14|
D|--14h16-----14---14-14-14h16-14----14--14h16-14----14h16-14--14--14|
A|-------------------------------------------------------------------|
E|-------------------------------------------------------------------|

e|-------------------------------------------------------------------|
B|-------------------------------------------------------------------|
G|--14------14----14--16--14---16b--16b-16b-16bp14-----14------------|
D|--14h16---14-------------------------------------16----------------|
A|-------------------------------------------------------------------|
E|-------------------------------------------------------------------|

www.geocities.com/leon_e_mail/


************************************

s Slide
B = Full Bend
b = Half Bend
h = Hammer On
p = Pull Off

************************************
Tunning: Standard (E A D G B e)
Chords Used

F#-2442xx
F#/E-0442xx
A-x02220
B-x244xx
E-022100
D-xx0232
C#7-x46464

Intro Riff

e----------0--------------
b------------0------------
g--------2-----0---2------
d------4---------4-2-1----
a--2h4---------------2---- Play 3x
e-------------------------

On the 4th bar play this

e----------0----------------
b------------0--------------
g--------2-----0---2--------
d------4---------4-2--------
a--2h4---------------0-2b3-0
e---------------------------

Verse

F# A B
I need to be myself
F# A B
I can't be no-one else

same kinda rythem and chords for rest of verse.

Pre- Chorus
E
You need to find out cos no ones gonna tell yer
F# F#/E F# F#/E
what im on about
E
You need to find a way for what you wanna say
C#7
But before tomorrow

all bridges played with same chords

Chorus
D A E F#
Coz my friend said he'd take yer home

chorus chords same for all bars and all chorus's. play chords x4

solo

e-----------------------------------------------------------------------
b--------------------------------------------17-------------------------
g--16b18-16-14-16----------14----16b18-16-14----16b18-14-----14h16----14
d-----------------16-14-16-------------------------------14h16---14h16--
a-----------------------------------------------------------------------
e-----------------------------------------------------------------------
x2

solo is played each chorus and after the last chorus the solo continues till the
end of the song. Dont know exactly how the solo goes for the end of the song but
i usually jst improvise with the above riff.enjoy:)

email any comments to me at>rodneyuplonker@hotmail.com
Tunning: Standard (E A D G B e)
Oasis
Supersonic

Tuning - Standard
(EADGBE)

Chords Used

F#5 (244***)
E5 (022***)
A5 (*022**)
B5 (*244**)
c#5 (466***)
D (*5777*)
A (577655)
Em (022000)
F#m (244222)

|-------0---------|-----------------|
|---------0-------|-0-----0---0---0-|
|-----2-----2-----|-2-----2---2---2-|
|---4---------4---|-2-----1---1---1-|
|-4-------------0-|-0--0--2---2---2-|
|-----------------|-----------------|

|-------0---------|-----------------|
|---------0-------|-0-----0---0---0-|
|-----2-----2-----|-2-----2---2---2-|
|---4---------4---|-2-----1---1---1-|
|-4-------------0-|-0--0--2---2---2-|
|-----------------|-----------------|

|-------0---------|-----------------|
|---------0-------|-0-----0---0---0-|
|-----2-----2-----|-2-----2---2---2-|
|---4---------4---|-2-----1---1---1-|
|-4-------------0-|-0--0--2---2---2-|
|-----------------|-----------------|

|-------0---------|-----------------|
|---------0-------|-0-----0---0---0-|
|-----2-----2-----|-2-----2---2---2-|
|---4---------4---|-2-----1---1---1-|
|-4-------------0-|-0--0--2---2---2-|
|-----------------|-----------------|

|-----------------|-----------------|
|-----------------|-----------------|
|------0--r2------|-----------------|
|--b4-------------|-----------------|
|-----------------|-----------------|
|-----------------|-----------------|

|-----------------|-----------------|
|-----------------|-----------------|
|-------------2-2-|-2-4-4-4-4-------|
|-4-4-2-4-4-2-2-2-|-2-4-4-4-4-------|
|-4-4-2-4-4-2-0-0-|-0-2-2-2-2-------|
|-2-2-0-2-2-0-----|-----------------|

..........................I NEED TO..

|-----------------|-----------------|
|-----------------|-----------------|
|-------------2-2-|-2-4-4-4-4-------|
|-4-4-2-4-4-2-2-2-|-2-4-4-4-4-------|
|-4-4-2-4-4-2-0-0-|-0-2-2-2-2-------|
|-2-2-0-2-2-0-----|-----------------|

.BE MY SELF...............I CANT BE..

|-----------------|-----------------|
|-----------------|-----------------|
|-------------2-2-|-2-4-4-4-4-------|
|-4-4-2-4-4-2-2-2-|-2-4-4-4-4-------|
|-4-4-2-4-4-2-0-0-|-0-2-2-2-2-------|
|-2-2-0-2-2-0-----|-----------------|

.KNOW ONE ELSE...........I AM........

|-----------------|-----------------|
|-----------------|-----------------|
|-------------2-2-|-2-4-4-4-4-------|
|-4-4-2-4-4-2-2-2-|-2-4-4-4-4-------|
|-4-4-2-4-4-2-0-0-|-0-2-2-2-2-------|
|-2-2-0-2-2-0-----|-----------------|

.FEELING SUPERSONCIC GIVE ME GIN.....

|-----------------|-----------------|
|-----------------|-----------------|
|-------------2-2-|-2-4-4-4-4-------|
|-4-4-2-4-4-2-2-2-|-2-4-4-4-4-------|
|-4-4-2-4-4-2-0-0-|-0-2-2-2-2-------|
|-2-2-0-2-2-0-----|-----------------|

.AND TONIC YOU CAN HAVE IT ALL BUT...

|-----------------|-----------------|
|-----------------|-----------------|
|-------------2-2-|-2-4-4-4-4-------|
|-4-4-2-4-4-2-2-2-|-2-4-4-4-4-------|
|-4-4-2-4-4-2-0-0-|-0-2-2-2-2-------|
|-2-2-0-2-2-0-----|-----------------|

.BUT HOW MUCH DO YOU WANT IT...YOU...

|-----------------|-----------------|
|-----------------|-----------------|
|-------------2-2-|-2-4-4-4-4-------|
|-4-4-2-4-4-2-2-2-|-2-4-4-4-4-------|
|-4-4-2-4-4-2-0-0-|-0-2-2-2-2-------|
|-2-2-0-2-2-0-----|-----------------|

.MAKE ME LAUGH.........GIVE ME YOUR..

|-----------------|-----------------|
|-----------------|-----------------|
|-------------2-2-|-2-4-4-4-4-------|
|-4-4-2-4-4-2-2-2-|-2-4-4-4-4-------|
|-4-4-2-4-4-2-0-0-|-0-2-2-2-2-------|
|-2-2-0-2-2-0-----|-----------------|

.AUTOGRAPH.................SHE DONE..

|-----------------|-----------------|
|-----------------|-----------------|
|-------------2-2-|-2-4-4-4-4-------|
|-4-4-2-4-4-2-2-2-|-2-4-4-4-4-------|
|-4-4-2-4-4-2-0-0-|-0-2-2-2-2-------|
|-2-2-0-2-2-0-----|-----------------|

.IT WITH A DOCTOR ON A HELICOPTER....

|-----------------|-----------------|
|-----------------|-----------------|
|-------------2-2-|-2-4-4-4-4-------|
|-4-4-2-4-4-2-2-2-|-2-4-4-4-4-------|
|-4-4-2-4-4-2-0-0-|-0-2-2-2-2-------|
|-2-2-0-2-2-0-----|-----------------|

.SLIPPED IT IN A TISSUE SELLING......

|-----------------|-----------------|
|-----------------|-----------------|
|-------------2-2-|-2-4-4-4-4-------|
|-4-4-2-4-4-2-2-2-|-2-4-4-4-4-------|
|-4-4-2-4-4-2-0-0-|-0-2-2-2-2-------|
|-2-2-0-2-2-0-----|-----------------|

.THE BIG ISSUE AND THEY FIND OUT.....

|-----------------|-----------------|
|-----------------|-----------------|
|-6-6-6-6-6-6-6-6-|-6-6-6-6-6-6-6-6-|
|-6-6-6-6-6-6-6-6-|-6-6-6-6-6-6-6-6-|
|-4-4-4-4-4-4-4-4-|-4-4-4-4-4-4-4-4-|
|-----------------|-----------------|

.THAT KNOWONES GONNA TELL YOU WHAT

|-----------------|-----------------|
|-----------------|-----------------|
|-------------2-2-|-2-4-4-4-4-------|
|-4-4-2-4-4-2-2-2-|-2-4-4-4-4-------|
|-4-4-2-4-4-2-0-0-|-0-2-2-2-2-------|
|-2-2-0-2-2-0-----|-----------------|

.IM ON ABOUT.........................

|-----------------|-----------------|
|-----------------|-----------------|
|-6-6-6-6-6-6-6-6-|-6-6-6-6-6-6-6-6-|
|-6-6-6-6-6-6-6-6-|-6-6-6-6-6-6-6-6-|
|-4-4-4-4-4-4-4-4-|-4-4-4-4-4-4-4-4-|
|-----------------|-----------------|

.YOU NEED TO FIND A WAY FOR WHAT YOU.


|-----------------|-----------------|
|-----------------|-----------------|
|-6-6-6-6-6-6-6-6-|-6-6-6-6-6-6-6-6-|
|-6-6-6-6-6-6-6-6-|-6-6-6-6-6-6-6-6-|
|-4-4-4-4-4-4-4-4-|-4-4-4-4-4-4-4-4-|
|-----------------|-----------------|

.WANT TO SAY BUT BEFORE TOMMOROW.....

|-----------------|-------2-2-2-2-2-|
|-7-7-7-7-5-5-5-5-|-------2-2-2-2-2-|
|-7-7-7-7-6-6-6-6-|-0-0-0-3-2-2-2-2-|
|-7-7-7-7-7-7-7-7-|-2-2-2-4---------|
|-5-5-5-5-7-7-7-7-|-2-2-2-4---------|
|---------5-5-5-5-|-0-0-0-2---------|

.MY FREIND SAID HE TAKE YOU HOME.....

|-----------------|-------2-2-2-2-2-|
|-7-7-7-7-5-5-5-5-|-------2-2-2-2-2-|
|-7-7-7-7-6-6-6-6-|-0-0-0-3-2-2-2-2-|
|-7-7-7-7-7-7-7-7-|-2-2-2-4---------|
|-5-5-5-5-7-7-7-7-|-2-2-2-4---------|
|---------5-5-5-5-|-0-0-0-2---------|

.SITS IN A CAR AND ALL ALONG.........

|-----------------|-------2-2-2-2-2-|
|-7-7-7-7-5-5-5-5-|-------2-2-2-2-2-|
|-7-7-7-7-6-6-6-6-|-0-0-0-3-2-2-2-2-|
|-7-7-7-7-7-7-7-7-|-2-2-2-4---------|
|-5-5-5-5-7-7-7-7-|-2-2-2-4---------|
|---------5-5-5-5-|-0-0-0-2---------|

.HE LIVES UNDER A WATERFALL..........

|-----------------|-------2-2-2-2-2-|
|-7-7-7-7-5-5-5-5-|-------2-2-2-2-2-|
|-7-7-7-7-6-6-6-6-|-0-0-0-3-2-2-2-2-|
|-7-7-7-7-7-7-7-7-|-2-2-2-4---------|
|-5-5-5-5-7-7-7-7-|-2-2-2-4---------|
|---------5-5-5-5-|-0-0-0-2---------|

.NOBODY CAN SEE HIM NOBODY CAN EVER.

|-----------------|-------2-2-2-2-2-|
|-7-7-7-7-5-5-5-5-|-------2-2-2-2-2-|
|-7-7-7-7-6-6-6-6-|-0-0-0-3-2-2-2-2-|
|-7-7-7-7-7-7-7-7-|-2-2-2-4---------|
|-5-5-5-5-7-7-7-7-|-2-2-2-4---------|
|---------5-5-5-5-|-0-0-0-2---------|

.HEAR HIM CALL.......................

|----------------------------------------|
|----------------------------------------|
|----------------------------------------|
|-B1618-R1816-14-16-14-------14----------|
|----------------------16-14----16-14-16-|
|----------------------------------------|

|----------------------------------------|
|----------------------------------------|
|----------------17----------------------|
|-B1618-r1816-14----b1618-r1816-14-------|
|----------------------------------14h16-|
|----------------------------------------|

|----------------------------------------|
|----------------------------------------|
|----------------------------------------|
|-14h16p14----14-------------------------|
|----------16----------------------------|
|----------------------------------------|


|----------------------------------------|
|----------------------------------------|
|----------------------------------------|
|-B1618-R1816-14-16-14-------14----------|
|----------------------16-14----16-14-16-|
|----------------------------------------|

|----------------------------------------|
|----------------------------------------|
|----------------17----------------------|
|-B1618-r1816-14----b1618-r1816-14-------|
|----------------------------------14h16-|
|----------------------------------------|

|----------------------------------------|
|----------------------------------------|
|----------------------------------------|
|-14h16p14----r14-/2------0--2-----------|
|----------16----------b4----------------|
|----------------------------------------|


|-----------------|-----------------|
|-----------------|-----------------|
|-------------2-2-|-2-4-4-4-4-------|
|-4-4-2-4-4-2-2-2-|-2-4-4-4-4-------|
|-4-4-2-4-4-2-0-0-|-0-2-2-2-2-------|
|-2-2-0-2-2-0-----|-----------------|

.2nd verse

|-----------------|-----------------|
|-----------------|-----------------|
|-------------2-2-|-2-4-4-4-4-------|
|-4-4-2-4-4-2-2-2-|-2-4-4-4-4-------|
|-4-4-2-4-4-2-0-0-|-0-2-2-2-2-------|
|-2-2-0-2-2-0-----|-----------------|



|-----------------|-----------------|
|-----------------|-----------------|
|-------------2-2-|-2-4-4-4-4-------|
|-4-4-2-4-4-2-2-2-|-2-4-4-4-4-------|
|-4-4-2-4-4-2-0-0-|-0-2-2-2-2-------|
|-2-2-0-2-2-0-----|-----------------|



|-----------------|-----------------|
|-----------------|-----------------|
|-------------2-2-|-2-4-4-4-4-------|
|-4-4-2-4-4-2-2-2-|-2-4-4-4-4-------|
|-4-4-2-4-4-2-0-0-|-0-2-2-2-2-------|
|-2-2-0-2-2-0-----|-----------------|


|-----------------|-----------------|
|-----------------|-----------------|
|-------------2-2-|-2-4-4-4-4-------|
|-4-4-2-4-4-2-2-2-|-2-4-4-4-4-------|
|-4-4-2-4-4-2-0-0-|-0-2-2-2-2-------|
|-2-2-0-2-2-0-----|-----------------|


|-----------------|-----------------|
|-----------------|-----------------|
|-------------2-2-|-2-4-4-4-4-------|
|-4-4-2-4-4-2-2-2-|-2-4-4-4-4-------|
|-4-4-2-4-4-2-0-0-|-0-2-2-2-2-------|
|-2-2-0-2-2-0-----|-----------------|


|-----------------|-----------------|
|-----------------|-----------------|
|-------------2-2-|-2-4-4-4-4-------|
|-4-4-2-4-4-2-2-2-|-2-4-4-4-4-------|
|-4-4-2-4-4-2-0-0-|-0-2-2-2-2-------|
|-2-2-0-2-2-0-----|-----------------|


|-----------------|-----------------|
|-----------------|-----------------|
|-------------2-2-|-2-4-4-4-4-------|
|-4-4-2-4-4-2-2-2-|-2-4-4-4-4-------|
|-4-4-2-4-4-2-0-0-|-0-2-2-2-2-------|
|-2-2-0-2-2-0-----|-----------------|


|-----------------|-----------------|
|-----------------|-----------------|
|-------------2-2-|-2-4-4-4-4-------|
|-4-4-2-4-4-2-2-2-|-2-4-4-4-4-------|
|-4-4-2-4-4-2-0-0-|-0-2-2-2-2-------|
|-2-2-0-2-2-0-----|-----------------|


|-----------------|-----------------|
|-----------------|-----------------|
|-------------2-2-|-2-4-4-4-4-------|
|-4-4-2-4-4-2-2-2-|-2-4-4-4-4-------|
|-4-4-2-4-4-2-0-0-|-0-2-2-2-2-------|
|-2-2-0-2-2-0-----|-----------------|


|-----------------|-----------------|
|-----------------|-----------------|
|-6-6-6-6-6-6-6-6-|-6-6-6-6-6-6-6-6-|
|-6-6-6-6-6-6-6-6-|-6-6-6-6-6-6-6-6-|
|-4-4-4-4-4-4-4-4-|-4-4-4-4-4-4-4-4-|
|-----------------|-----------------|


|-----------------|-----------------|
|-----------------|-----------------|
|-------------2-2-|-2-4-4-4-4-------|
|-4-4-2-4-4-2-2-2-|-2-4-4-4-4-------|
|-4-4-2-4-4-2-0-0-|-0-2-2-2-2-------|
|-2-2-0-2-2-0-----|-----------------|


|-----------------|-----------------|
|-----------------|-----------------|
|-------------2-2-|-2-4-4-4-4-------|
|-4-4-2-4-4-2-2-2-|-2-4-4-4-4-------|
|-4-4-2-4-4-2-0-0-|-0-2-2-2-2-------|
|-2-2-0-2-2-0-----|-----------------|


|-----------------|-----------------|
|-----------------|-----------------|
|-6-6-6-6-6-6-6-6-|-6-6-6-6-6-6-6-6-|
|-6-6-6-6-6-6-6-6-|-6-6-6-6-6-6-6-6-|
|-4-4-4-4-4-4-4-4-|-4-4-4-4-4-4-4-4-|
|-----------------|-----------------|


|-----------------|-------2-2-2-2-2-|
|-7-7-7-7-5-5-5-5-|-------2-2-2-2-2-|
|-7-7-7-7-6-6-6-6-|-0-0-0-3-2-2-2-2-|
|-7-7-7-7-7-7-7-7-|-2-2-2-4---------|
|-5-5-5-5-7-7-7-7-|-2-2-2-4---------|
|---------5-5-5-5-|-0-0-0-2---------|


|-----------------|-------2-2-2-2-2-|
|-7-7-7-7-5-5-5-5-|-------2-2-2-2-2-|
|-7-7-7-7-6-6-6-6-|-0-0-0-3-2-2-2-2-|
|-7-7-7-7-7-7-7-7-|-2-2-2-4---------|
|-5-5-5-5-7-7-7-7-|-2-2-2-4---------|
|---------5-5-5-5-|-0-0-0-2---------|


|-----------------|-------2-2-2-2-2-|
|-7-7-7-7-5-5-5-5-|-------2-2-2-2-2-|
|-7-7-7-7-6-6-6-6-|-0-0-0-3-2-2-2-2-|
|-7-7-7-7-7-7-7-7-|-2-2-2-4---------|
|-5-5-5-5-7-7-7-7-|-2-2-2-4---------|
|---------5-5-5-5-|-0-0-0-2---------|


|-----------------|-------2-2-2-2-2-|
|-7-7-7-7-5-5-5-5-|-------2-2-2-2-2-|
|-7-7-7-7-6-6-6-6-|-0-0-0-3-2-2-2-2-|
|-7-7-7-7-7-7-7-7-|-2-2-2-4---------|
|-5-5-5-5-7-7-7-7-|-2-2-2-4---------|
|---------5-5-5-5-|-0-0-0-2---------|


|-----------------|-------2-2-2-2-2-|
|-7-7-7-7-5-5-5-5-|-------2-2-2-2-2-|
|-7-7-7-7-6-6-6-6-|-0-0-0-3-2-2-2-2-|
|-7-7-7-7-7-7-7-7-|-2-2-2-4---------|
|-5-5-5-5-7-7-7-7-|-2-2-2-4---------|
|---------5-5-5-5-|-0-0-0-2---------|


|----------------------------------------|
|----------------------------------------|
|----------------------------------------|
|-B1618-R1816-14-16-14-------14----------|
|----------------------16-14----16-14-16-|
|----------------------------------------|

|----------------------------------------|
|----------------------------------------|
|----------------17----------------------|
|-B1618-r1816-14----b1618-r1816-14-------|
|----------------------------------14h16-|
|----------------------------------------|

|----------------------------------------|
|----------------------------------------|
|----------------------------------------|
|-14h16p14----14-------------------------|
|----------16----------------------------|
|----------------------------------------|


|----------------------------------------|
|----------------------------------------|
|----------------------------------------|
|-B1618-R1816-14-16-14-------14----------|
|----------------------16-14----16-14-16-|
|----------------------------------------|

|----------------------------------------|
|----------------------------------------|
|----------------17----------------------|
|-B1618-r1816-14----b1618-r1816-14-------|
|----------------------------------14h16-|
|----------------------------------------|

|----------------------------------------|
|----------------------------------------|
|----------------------------------------|
|-14h16p14----r14-/2------0--2-----------|
|----------16----------b4----------------|
|----------------------------------------|
Song info
Supersonic
Oasis
2001
  • Rock
  • Indie Rock
Alternative tracks
Similar songs
Superstar - Sonic Youth
Planetary Go - My Chemical Romance
Ha Ha Ha Ha - White Denim
Alright - Supergrass
Come Home - Placebo

Hi! Hope you enjoy backing track experience.
If you want to help us in the development of the project, feel free to donate!