Wonderwall - Oasis
00:00 / 00:00
Tabs and lyrics
Tunning: Standard (E A D G B e)
Title: Wonderwall
Artist: Oasis
Album: (What's the story) Morning Glory?

Capo 2. fret

Chords used:

EADGBe
Em7 (022033)
G (320033)
Dsus4 (xx0233)
A7sus4 (x02033)
Cadd9 (x32033)
Dsus4/F# (2x0233) [note:some people think this is a G/F# (200033)]

Here's the rythym of how the chord in the verses should be played:

Em7 G Dsus4 A7sus4
e--3--3--3--3-3-3-3-3--3--3-3--3-3-3--3--3-3-3--3--3-3-3-3-3-3-3----|
B--3--3--3--3-3-3-3-3--3--3-3--3-3-3--3--3-3-3--3--3-3-3-3-3-3-3----|
G--0--0--0--0-0-0-0-0--0--0-0--0-2-2--2--2-0-0--0--0-0-0-0-0-0-0----|
D--2--2--2--2-2-2-0-0--0--0-0--0-0-0--0--0-0-2--2--0-2-2-0-2-2-0----|
A--2--2--2--2-2-2-2-2--2--2-2----------------0--0----0-0-0-0-0------|
E--0--0--0--0-0-0-3-3--3--3-3---------------------------------------|


Verse 1
-------
[NOTE: use the above strumming rythym when playing the verse chords below]
[ANOTHER NOTE: play all "A7sus4"'s in the verses the way it is played in
the rythym section above.]

Em7 G Dsus4 A7sus4
Today is gonna be the day that they're gonna throw it back to you
Em7 G Dsus4 A7sus4
By now you should've somehow realized what you gotta do
Em7 G Dsus4 A7sus4
I don't believe that anybody feels the way I do
Cadd9 Dsus4 A7sus4
About you now

Verse 2
-------
Em7 G Dsus4 A7sus4
Backbeat, the word is on the street that the fire in your heart is out
Em7 G Dsus4 A7sus4
I'm sure you've heard it all before but you never really had a doubt
Em7 G Dsus4 A7sus4
I don't believe that anybody feels the way I do
Em7 G Dsus4 A7sus4
about you now


Pre-chorus
----------
[NOTE: the tab below is what is played by guitars 1 and 3 while guitar 2
plays the chords above the words. The tab below is used for both the first
and second lines of the pre-chorus]

h=hammer on next note without picking again with the right hand
p=pull off to make next note without having to pick the string w/ your
right hand again

Cadd9 Dsus4 Em7
And all the roads we have to walk are winding
e-------3------------2h3p2----------------------------------------|
B----------3----------------3-------------------------------------|
G-------------0----------------2-----------------0-----------0----|
D--------------------0------------------------0---------0h2-------|
A---3------------------------------------0h2---------2------------|
E-------------------------------------0---------------------------|

Cadd9 Dsus4 Em7
And all the lights that lead us there are blinding
Cadd9 Dsus4
There are many things that I
G Dsus4/F# Em7 G A7sus4
would like to say to you but I don't know how
e-------3--------3--------3---------3-----------------0-------------0---------|
B---------3--------3--------3---------3-----------3------3--------------3-----|
G-----------0--------0--------0---------0-----------0------0----------------0-|
D-----------------------------------------------------------------------------|
A---------------------------------------------------------------2-------------|
E-----3-------2---------0---------3-----------0-------------------------------|

e-----------0---------------------|
B------3-------3-------3----------|
G--------0-------0----------------|
D-----------------------------0---|
A--0-----------------2----0h2-----|
E---------------------------------|


Chorus
------
Cadd9 Em7 G Em7 Cadd9 Em7 G
Because maybe You're gonna be the one that saves me
Em7 Cadd9 Em7 G Em7 Cadd9 Em7 G Em7
And after all You're my wonderwall

(hold Em7)

drums come in, then:

e--3-3-3-3-3-3-3---|
B--3-3-3-3-3-3-3---|
G--0-0-0-0-0-0-0---|
D--0-2-2-0-2-2-0---| Then right back to verse
A--0-0-0-0-0-0-0---|
E------------------|


Verse 3
-------
[same chords as Verse 2]
Today was gonna be the day but they'll never throw it back to you
By now you should've somehow realized what you're not to do
I don't believe that anybody feels the way I do about you now

Pre-chorus
----------
And all the roads that lead you there were winding
And all the lights that light the way are blinding
There are many things that I would like to say to you,
but I don't know how

Chorus
------
I said maybe
You're gonna be the one that saves me
And after all
You're my wonderwall

Outro
-----
repeat bunches of times
Cadd9 Em7 G Em7
e--------3--0-------------3--0----|
B--0--1----------1--0--1----------|
G---------------------------------|
D---------------------------------|
A---------------------------------|
E---------------------------------|
Tunning: Nashville (E A D G B E)
Rhythm Figure 1]

Em7 G Dsus4 A7sus4
E|-3---3---3-----3-3-3-3---3---3-3-|-3-3-3---3---3-3---3---3-3-3-3-3-|
B|-3---3---3-----3-3-3-3---3---3-3-|-3-3-3---3---3-3---3---3-3-3-3-3-|
G|-0---0---0-----0-0-0-0---0---0-0-|-2-2-2---2---0-2---2---2-2-2-0-0-|
D|-2---2---2-----0-0-0-0---0---0-0-|-0-0-0---0---0-2---2---2-2-2-0-0-|
A|-2---2---2-----2-2-2-2---2---2-2-|---------------0---0---0-0-0-0-0-|
E|-0---0---0-----0-3-3-3---3---3-3-|---------------------------------|

Em7 G Dsus4 A7sus4
E|-3---3---3-----3-3-3-3---3-----3-|-3-3-3---3---3-3---3-3-3-3-3-3-3-|
B|-3---3---3-----3-3-3-3---3-----3-|-3-3-3---3---3-3---3-3-3-3-3-3-3-|
G|-0---0---0-----0-0-0-0---0-----0-|-2-2-2---2---0-2---2-2-2-2-2-0-0-|
D|-2---2---2-----0-0-0-0---0-----0-|-0-0-0---0---0-2---2-2-2-2-2-0-0-|
A|-2---2---2-----2-2-2-2---2-----2-|---------------0---0-0-0-0-0-0-0-|
E|-0---0---0-----0-3-3-3---3-----3-|---------------------------------|

Em7 G Dsus4 A7sus4
E|-3---3---3-----3-3-3-3---3---3-3-|-3-3-3---3---3-3---3-3-3-3-3-3-3-|
B|-3---3---3-----3-3-3-3---3---3-3-|-3-3-3---3---3-3---3-3-3-3-3-3-3-|
G|-0---0---0-----0-0-0-0---0---0-0-|-2-2-2---2---0-2---2-2-2-2-2-0-0-|
D|-2---2---2-----0-0-0-0---0---0-0-|-0-0-0---0---0-2---2-2-2-2-2-0-0-|
A|-2---2---2-----2-2-2-2---2---2-2-|---------------0---0-0-0-0-0-0-0-|
E|-0---0---0-----0-3-3-3---3---3-3-|---------------------------------|

continue simile ...


[Rhythm Figure 2]

Cmaj7 Dsus4 A7sus4
E|-3---3---3-3-3-3---3-3-3-3-3-3-3-|-3-3-3---3---3-3---3-3-3-3-3-3-3-|
B|-0---0---0-0-0-3---3-3-3-3-3-0-0-|-0-0-3---3---3-3---3-3-3-3-3-0-0-|
G|-0---0---0-0-0-2---2-2-2-2-2-0-0-|-0-0-0---0---0-0---0-0-0-0-0-0-0-|
D|-2---2---2-2-2-0---0-0-0-0-0-0-0-|-0-0-2---2---2-2---2-2-2-2-2-0-0-|
A|-3---3---3-3-3-------------------|-----0---0---0-0---0-0-0-0-0-----|
E|---------------------------------|---------------------------------|


Rhythm Figure 1]

Em7 G Dsus4 A7sus4
E|-3---3---3-----3-3-3-3---3---3-3-|-3-3-3---3---3-3---3---3-3-3-3-3-|
B|-3---3---3-----3-3-3-3---3---3-3-|-3-3-3---3---3-3---3---3-3-3-3-3-|
G|-0---0---0-----0-0-0-0---0---0-0-|-2-2-2---2---0-2---2---2-2-2-0-0-|
D|-2---2---2-----0-0-0-0---0---0-0-|-0-0-0---0---0-2---2---2-2-2-0-0-|
A|-2---2---2-----2-2-2-2---2---2-2-|---------------0---0---0-0-0-0-0-|
E|-0---0---0-----0-3-3-3---3---3-3-|---------------------------------|

Em7 G Dsus4 A7sus4
E|-3---3---3-----3-3-3-3---3-----3-|-3-3-3---3---3-3---3-3-3-3-3-3-3-|
B|-3---3---3-----3-3-3-3---3-----3-|-3-3-3---3---3-3---3-3-3-3-3-3-3-|
G|-0---0---0-----0-0-0-0---0-----0-|-2-2-2---2---0-2---2-2-2-2-2-0-0-|
D|-2---2---2-----0-0-0-0---0-----0-|-0-0-0---0---0-2---2-2-2-2-2-0-0-|
A|-2---2---2-----2-2-2-2---2-----2-|---------------0---0-0-0-0-0-0-0-|
E|-0---0---0-----0-3-3-3---3-----3-|---------------------------------|

Em7 G Dsus4 A7sus4
E|-3---3---3-----3-3-3-3---3---3-3-|-3-3-3---3---3-3---3-3-3-3-3-3-3-|
B|-3---3---3-----3-3-3-3---3---3-3-|-3-3-3---3---3-3---3-3-3-3-3-3-3-|
G|-0---0---0-----0-0-0-0---0---0-0-|-2-2-2---2---0-2---2-2-2-2-2-0-0-|
D|-2---2---2-----0-0-0-0---0---0-0-|-0-0-0---0---0-2---2-2-2-2-2-0-0-|
A|-2---2---2-----2-2-2-2---2---2-2-|---------------0---0-0-0-0-0-0-0-|
E|-0---0---0-----0-3-3-3---3---3-3-|---------------------------------|


[Riff A]

Csus2 D Em
E|-----3-----------2h3p2-----------|---------------------------------|
B|---------1-------------3---------|---------------------------------|
G|-------------0-------------2-----|---------------0---------0-------|
D|---------------0-----------------|---------0-----------0h2-----0---|
A|-3-------------------------------|-----0h2-------------------------|
E|---------------------------------|-0-------------------------------|

Csus2 D Em
E|-----3-----------2h3p2-----------|---------------------------------|
B|---------1-------------3---------|---------------------------------|
G|-------------0-------------2-----|---------------0---------0-------|
D|---------------0-----------------|---------0-----------0h2-----0---|
A|-3-------------------------------|-----0h2-------------------------|
E|---------------------------------|-0-------------------------------|

Csus2 D G G/F# Em7
E|-----3-----------2h3p2-----------|---3-------3-------3-------3-----|
B|---------1-------------3---------|-----3-------3-------3-------3---|
G|-------------0-------------2-----|-------0-------0-------0-------0-|
D|---------------0-----------------|---------------------------------|
A|-3-------------------------------|---------------------------------|
E|---------------------------------|-3-------2-------0-------0-------|

A7sus4
E|---------0-------------0---------|---------0-----------------------|
B|-----3-------3-------3-----3-----|-----3-------3-------3-----3-----|
G|---0-----------0---0-----------0-|---0-----------0---0-----0---0---|
D|---------------------------------|-----------------------2-------2-|
A|-0---------------0---------------|-0---------------0---------------|
E|---------------------------------|---------------------------------|


[Rhythm Figure 3]

Cadd9 Em7 G Em7
E|---------------------------------|---------------------------------|
B|-3---3---3-----3-3-3-3---3-----3-|-3-3-3---3---3-3---3-3-3-3---3-3-|
G|-0---0---0-----0-0-0-0---0-----0-|-0-0-0---0---0-0---0-0-0-0---0-0-|
D|-2---2---2-----0-2-2-2---2-----0-|-0-0-0---0---0-2---2-2-2-2---2-2-|
A|-3---3---3-----0-2-2-2---2-----2-|-2-2-2---2---2-2---2-2-2-2---2-2-|
E|-----------------0-0-0---0-----0-|-3-3-3---3---3-0---0-0-0-0---0-0-|

continue simile ...


[Rhythm Figure 4]

Cadd9 Em7
E|---------------------------------|
B|-3---3---3-----3-3-3-3---3-----3-|
G|-0---0---0-----0-0-0-0---0-----0-|
D|-2---2---2-----0-2-2-2---2-----0-|
A|-3---3---3-----0-2-2-2---2-----2-|
E|-----------------0-0-0---0-----0-|

G Em7
E|-----------------|---------------------------------|
B|-3-3-3---3-----3-|---------------------------------|
G|-0-0-0---0-----0-|---------------------------------|
D|-0-0-0---0-----2-|---------------------------------|
A|-2-2-2---2-----2-|---------------------------------|
E|-3-3-3---3-----0-|---------------------------------|

A7sus4
E|---------------------------------|
B|-----------------3-3-3-3-3-3-3-3-|
G|-----------------0-0-0-0-0-0-0-0-|
D|-----------------2-2-2-2-2-2-2-2-|
A|-----------------0-0-0-0-0-0-0-0-|
E|---------------------------------|


Rhythm Figure 1]

Em7 G Dsus4 A7sus4
E|-3---3---3-----3-3-3-3---3---3-3-|-3-3-3---3---3-3---3---3-3-3-3-3-|
B|-3---3---3-----3-3-3-3---3---3-3-|-3-3-3---3---3-3---3---3-3-3-3-3-|
G|-0---0---0-----0-0-0-0---0---0-0-|-2-2-2---2---0-2---2---2-2-2-0-0-|
D|-2---2---2-----0-0-0-0---0---0-0-|-0-0-0---0---0-2---2---2-2-2-0-0-|
A|-2---2---2-----2-2-2-2---2---2-2-|---------------0---0---0-0-0-0-0-|
E|-0---0---0-----0-3-3-3---3---3-3-|---------------------------------|

Em7 G Dsus4 A7sus4
E|-3---3---3-----3-3-3-3---3-----3-|-3-3-3---3---3-3---3-3-3-3-3-3-3-|
B|-3---3---3-----3-3-3-3---3-----3-|-3-3-3---3---3-3---3-3-3-3-3-3-3-|
G|-0---0---0-----0-0-0-0---0-----0-|-2-2-2---2---0-2---2-2-2-2-2-0-0-|
D|-2---2---2-----0-0-0-0---0-----0-|-0-0-0---0---0-2---2-2-2-2-2-0-0-|
A|-2---2---2-----2-2-2-2---2-----2-|---------------0---0-0-0-0-0-0-0-|
E|-0---0---0-----0-3-3-3---3-----3-|---------------------------------|

Em7 G Dsus4 A7sus4
E|-3---3---3-----3-3-3-3---3---3-3-|-3-3-3---3---3-3---3-3-3-3-3-3-3-|
B|-3---3---3-----3-3-3-3---3---3-3-|-3-3-3---3---3-3---3-3-3-3-3-3-3-|
G|-0---0---0-----0-0-0-0---0---0-0-|-2-2-2---2---0-2---2-2-2-2-2-0-0-|
D|-2---2---2-----0-0-0-0---0---0-0-|-0-0-0---0---0-2---2-2-2-2-2-0-0-|
A|-2---2---2-----2-2-2-2---2---2-2-|---------------0---0-0-0-0-0-0-0-|
E|-0---0---0-----0-3-3-3---3---3-3-|---------------------------------|


[Riff A]

Csus2 D Em
E|-----3-----------2h3p2-----------|---------------------------------|
B|---------1-------------3---------|---------------------------------|
G|-------------0-------------2-----|---------------0---------0-------|
D|---------------0-----------------|---------0-----------0h2-----0---|
A|-3-------------------------------|-----0h2-------------------------|
E|---------------------------------|-0-------------------------------|

Csus2 D Em
E|-----3-----------2h3p2-----------|---------------------------------|
B|---------1-------------3---------|---------------------------------|
G|-------------0-------------2-----|---------------0---------0-------|
D|---------------0-----------------|---------0-----------0h2-----0---|
A|-3-------------------------------|-----0h2-------------------------|
E|---------------------------------|-0-------------------------------|

Csus2 D G G/F# Em7
E|-----3-----------2h3p2-----------|---3-------3-------3-------3-----|
B|---------1-------------3---------|-----3-------3-------3-------3---|
G|-------------0-------------2-----|-------0-------0-------0-------0-|
D|---------------0-----------------|---------------------------------|
A|-3-------------------------------|---------------------------------|
E|---------------------------------|-3-------2-------0-------0-------|

A7sus4
E|---------0-------------0---------|---------0-----------------------|
B|-----3-------3-------3-----3-----|-----3-------3-------3-----3-----|
G|---0-----------0---0-----------0-|---0-----------0---0-----0---0---|
D|---------------------------------|-----------------------2-------2-|
A|-0---------------0---------------|-0---------------0---------------|
E|---------------------------------|---------------------------------|


[Rhythm Figure 3]

Cadd9 Em7 G Em7
E|---------------------------------|---------------------------------|
B|-3---3---3-----3-3-3-3---3-----3-|-3-3-3---3---3-3---3-3-3-3---3-3-|
G|-0---0---0-----0-0-0-0---0-----0-|-0-0-0---0---0-0---0-0-0-0---0-0-|
D|-2---2---2-----0-2-2-2---2-----0-|-0-0-0---0---0-2---2-2-2-2---2-2-|
A|-3---3---3-----0-2-2-2---2-----2-|-2-2-2---2---2-2---2-2-2-2---2-2-|
E|-----------------0-0-0---0-----0-|-3-3-3---3---3-0---0-0-0-0---0-0-|


[Rhythm Figure 5]

Cadd9 Em7 G Em
E|---------------------------------|-------------0-------------------|
B|-3---3---3-----3-3-3-3---3-----3-|-3-3-3---3---0-------------------|
G|-0---0---0-----0-0-0-0---0-----0-|-0-0-0---0---0-------------------|
D|-2---2---2-----0-2-2-2---2-----0-|-0-0-0---0---2-------------------|
A|-3---3---3-----0-2-2-2---2-----2-|-2-2-2---2---2-------------------|
E|-----------------0-0-0---0-----0-|-3-3-3---3---0-------------------|



************************************

| h Hammer-on
| p Pull-off

************************************
Tunning: Standard (E A D G B e)
Artist: Oasis
song:wonderwall
Album: (What's the story) Morning Glory?
tab by:FRANCIS CABALLERO OF BSU


Capo 2. fret

(Chords used)

EADGBe
Em7 (022033)
G (320033)
Dsus4 (xx0233)
A7sus4 (x02033)
Cadd9 (x32033)
Dsus4/F# (2x0233) [note:some people think this is a G/F# (200033)]

(Here's the rythym of how the chord in the verses should be played)

Em7 G Dsus4 A7sus4
e|--3--3--3--3-3-3-3-3--3--3-3--3-3-3--3--3-3-3--3--3-3-3-3-3-3-3----|
B|--3--3--3--3-3-3-3-3--3--3-3--3-3-3--3--3-3-3--3--3-3-3-3-3-3-3----|
G|--0--0--0--0-0-0-0-0--0--0-0--0-2-2--2--2-0-0--0--0-0-0-0-0-0-0----|
D|--2--2--2--2-2-2-0-0--0--0-0--0-0-0--0--0-0-2--2--0-2-2-0-2-2-0----|
A|--2--2--2--2-2-2-2-2--2--2-2----------------0--0----0-0-0-0-0------|
E|--0--0--0--0-0-0-3-3--3--3-3---------------------------------------|


[Verse 1]

(NOTE: use the above strumming rythym when playing the verse chords below)
(ANOTHER NOTE: play all "A7sus4"'s in the verses the way it is played in
the rythym section above)

Em7 G Dsus4 A7sus4
Today is gonna be the day that they're gonna throw it back to you
Em7 G Dsus4 A7sus4
By now you should've somehow realized what you gotta do
Em7 G Dsus4 A7sus4
I don't believe that anybody feels the way I do
Cadd9 Dsus4 A7sus4
About you now


[Verse 2]

Em7 G Dsus4 A7sus4
Backbeat, the word is on the street that the fire in your heart is out
Em7 G Dsus4 A7sus4
I'm sure you've heard it all before but you never really had a doubt
Em7 G Dsus4 A7sus4
I don't believe that anybody feels the way I do
Em7 G Dsus4 A7sus4
about you now


[Pre-chorus]

(NOTE: the tab below is what is played by guitars 1 and 3 while guitar 2
plays the chords above the words. The tab below is used for both the first
and second lines of the pre-chorus)


Cadd9 Dsus4 Em7
e|-------3------------2h3p2----------------------------------------|
B|----------3----------------3-------------------------------------|
G|-------------0----------------2-----------------0-----------0----|
D|--------------------0------------------------0---------0h2-------|
A|---3------------------------------------0h2---------2------------|
E|-------------------------------------0---------------------------|
And all the roads we have to walk are winding

Cadd9 Dsus4 Em7
And all the lights that lead us there are blinding
Cadd9 Dsus4
There are many things that I

G Dsus4/F# Em7 G A7sus4
e|-------3--------3--------3---------3-----------------0-------------0---------|
B|---------3--------3--------3---------3-----------3------3--------------3-----|
G|-----------0--------0--------0---------0-----------0------0----------------0-|
D|-----------------------------------------------------------------------------|
A|---------------------------------------------------------------2-------------|
E|-----3-------2---------0---------3-----------0-------------------------------|
would like to say to you but I don't know how

e|-----------0---------------------|
B|------3-------3-------3----------|
G|--------0-------0----------------|
D|-----------------------------0---|
A|--0-----------------2----0h2-----|
E|---------------------------------|


[Chorus]

Cadd9 Em7 G Em7 Cadd9 Em7 G
Because maybe You're gonna be the one that saves me
Em7 Cadd9 Em7 G Em7 Cadd9 Em7 G Em7
And after all You're my wonderwall

(hold Em7, then silence)

drums come in, then:

e|--3-3-3-3-3-3-3---|
B|--3-3-3-3-3-3-3---|
G|--0-0-0-0-0-0-0---| (and then right back into chord
D|--0-2-2-0-2-2-0---| progression for the verses)
A|--0-0-0-0-0-0-0---|
E|------------------|


[Verse 3]

Em7 G Dsus4 A7sus4
Today was gonna be the day but they'll never throw it back to you
Em7 G Dsus4 A7sus4
By now you should've somehow realized what you're not to do
Em7 G Dsus4 A7sus4
I don't believe that anybody feels the way I do about you now


[Pre-chorus]

Cadd9 Dsus4 Em7
And all the roads that lead you there were winding
Cadd9 Dsus4 Em7
And all the lights that light the way are blinding
G Dsus4/F# Em7 G
There are many things that I would like to say to you,
A7sus4
but I don't know how


[Chorus]

Cadd9 Em7
I said maybe
G Em7 Cadd9 Em7 G
You're gonna be the one that saves me
Em7 Cadd9 Em7
And after all
G Em7 Cadd9 Em7 G Em7
You're my wonderwall


[Outro]

(this riff repeated a number of times with chorus chords in background)

Cadd9 Em7 G Em7
e|--------3--0-------------3--0----|
B|--0--1----------1--0--1----------|
G|---------------------------------|
D|---------------------------------|
A|---------------------------------|
E|---------------------------------|


(NOTE: this little riff is played WITHOUT a capo)

e|--------------0--------------------0-----|
B|--------0--------0--------2--------2-----|
G|-----------2--------2-----2--------2-----|
D|-----4-----------------0--2--4--2--2-----|
A|--4-----------------------0--0-----0-----|
E|-----------------------------------------|


***********************************

| h Hummer-on
| p Pull-off

***********************************
Tunning: Standard (E A D G B e)
#----------------------------------PLEASE NOTE--------------------------------#
#This file is the author's own work and represents their interpretation of the#
#song. You may only use this file for private study, scholarship, or research.#
#-----------------------------------------------------------------------------#
#-- File created with Instab - http://www.pconline.com/~smcarey/instab.html --#
#-----------------------------------------------------------------------------#

Author/Artist: Oasis
Title: Wonderwall
Transcribed By: Hi Donuts


m mute
h hammer on
p pull off

Strum between 1st and 2nd pickup.


Palm mute top four strings.
Tuning (eb A D G B E)



----|-------------------------------------------------------------------|--|
----|-------------------------------5---5-5---5-------------------------|--|
----|---------9----6-----9-----9--2-2-2-4-4---4---x-4---4---4-4---------|--|
----|-7-------7----7-7---7-7---7--2---2---2---2---x-4---4---4-4p2-------|--|
----|-9---9---9----4-4---7-7---7-----------------------------------4p2--|--|
----|-------------------------------------------------------------------|--|
m m

Verse


----|--------------------------------------------------------------------|
----|--------------------------------------------------------------------|
----|-2---2---2----x--4--4--4-4----4---x-4---------x-4---4---4-4---------|
----|-4---5---5p4--x--6--6--6-6p4--4---x-4-4---4---x-4---4---4-4p2-------|
----|-5---5---5----------------------------2---2--------------------4p2--|
----|--------------------------------------------------------------------|
m m m m m m

Break



----|-----5------4-5-4--------------------------------|
----|--------5---------5------------------------------|
----|---------------------4---------------2-------2---|
----|---------------------------------2------2h4------|
----|-5---------------------------2h4-----------------|
----|-------------------------3-----------------------|


Bridge

----|-----5------4-5-4----------------------------------|
----|--------5---------5--------------------------------|
----|---------------------4---------------2-------2-----|
----|---------------------------------2------2h4-----4--|
----|-5---------------------------2h4-------------------|
----|-------------------------3-------------------------|





----|-----5------4-5-4-----------5------4------2------2---|
----|--------5---------5------5------5------5------5------|
----|---------------------4-------------------------------|
----|-----------------------------------------------------|
----|-5---------------------------------------------------|
----|-----------------------------------------------------|


Bridge End

----|--------2--------------2----------------2---------------2----|
----|----5-------5-----5---------5-------5-------5-----5----------|
----|-------------------------------------------------------------|
----|-------------------------------------------------------------|
----|-2--------------2---2-----------2---------------2---2--------|
----|-------------------------------------------------------------|






----|-5-----5-----5-----5-----|--|-------|
----|-3-----2-----2-----2-----|--|-5-----|
----|-2-----2-----2-----2-----|--|-6-----|
----|-4-----4-----4-----4-----|--|-7-----|
----|-------------------------|--|-7-----|
----|-------------------------|--|-------|


Chorus Arpeggio Strum







Song info
Wonderwall
Oasis
2001
  • Rock
  • Brit Pop
  • Indie Rock
Alternative tracks
Similar songs
Phantom Limb - The Shins
These Things - She Wants Revenge
Slow Hands - Interpol
Holiday - Vampire Weekend
Soldier On - Oasis

Hi! Hope you enjoy backing track experience.
If you want to help us in the development of the project, feel free to donate!