Miracle Man - Ozzy Osbourne
00:00 / 00:00
Tabs and lyrics
Tunning: Standard (E A D G B e)
Miracle Man - Ozzy Osbourne

Eb tuning

Play (Riff) (4X) (b)up 1/2 step
(intro)
D#|------------5--------------------5---------------|
A#|------------5--------------------5---------------|
F#|---------------4---2--1------------4(b)--2-------|
C#|---------------4---2--2------------4(b)--2-------|
G#|-------------------------------------------------|
D#|----2-2-2-2--------------2-2-2-2-----------------|


Riff2 Play 4X (hold) "looking for a Mir-acle
Man
(first 2 verses)
D#|--------------------------------|----------|-----------------------------|
A#|--------------------------------|----------|-----------------------------|
F#|--------------------------------|----------|-----------------------------|
C#|--------------------------------|------(4)-|-----------------------------|
G#|----4--4----------4--2----------|------(2)-|--4-4------------------------|
D#|----O--2--2-2-2-2-O--O--2-2-2-2-|--2-2-----|--O-2-2-2-2-2-2-2--2--2--2--2|

"that tells me no lies"
{pinch harmonic} I don`t know....from|
D#|--------------------------------||------7(b)-7--5-----------|
A#|--------------------------------||------7(b)-7--5-7---------|
F#|---4------------------------{9}-||----------------7---------|
C#|---2--4-4-----------------------||---6--------------9-- 11--|
G#|------2-2-----4--4--------------||---4--------------7----9--|
D#|----------X-X-O--2-O-2-O-2------||-----------------------9--|

I don`t know where...been!
|----7(b)-7-5----------------|
|----7(b)-7-5--7-------------|
|--------------7-------------|
|--6---------------9------11-|
|--4---------------7-------9-|

Not our Jimmy sinner... he`s so
obscene
(6th verse) [let ring] {pinch
harm.}
D#|-------------------------------------------------------------------------|
A#|-------------------------------------------------------------------------|
F#|-------------------------------------------------------------------------|
C#|--6--9--9--8--6--4--6--[6]-----------------------------------------------|
G#|--4--7--7--6--4--2--4--[4]--5-5-5-5-5-4-4-4-4-4-3-3-3-3-3-2-2-2-2-2------|
D#|--------------------------------------------------------------------{3~}-|

Miracle Man Your busted/ Miracle Man.....

D#|------------5----------------------------------|
A#|------------5----------------------------------|
F#|----------------4--2--1-------------4--2--1----|
C#|----------------4--2--2-------------4--2--2----|
G#|-----------------------------------------------|
D#|--2-2-2-2------------------2-2-2-2-------------|


solo:
D#|-----9--14--------9--14-------9--14-------9--14--|
A#|-12-----------12----------12----------12---------|
F#|-------------------------------------------------|
C#|-------------------------------------------------|
G#|-------------------------------------------------|
D#|-------------------------------------------------|

D#|------12--16-------12--16-------12--16------12--16---|
A#|--14-----------14-----------14-----------14----------|
F#|-----------------------------------------------------|
C#|-----------------------------------------------------|
G#|-----------------------------------------------------|
D#|-----------------------------------------------------|

D#|------14--17-------14--17-------14--17-------14--17--------|
A#|--15-----------15-----------15-----------15----------------|
F#|-----------------------------------------------------------|
C#|-----------------------------------------------------------|
G#|-----------------------------------------------------------|
D#|-----------------------------------------------------------|


Ending 1:
D#|--19--14----------17--14-----------19--14----------17--14-----------------|
A#|----------17--14----------17--14-----------17--14----------17--14---------|
F#|---------------------------------------------------------------------16^~~|
C#|--------------------------------------------------------------------------|
G#|--------------------------------------------------------------------------|
D#|--------------------------------------------------------------------------|
note: This is extremely hard and extremely fast.


Ending 2:
D#|---------------------------------------------------------------|
A#|---17~-------17~-----------------------------------------------|
F#|-------16~--------14~------------------------------------------|
C#|---------------------------------------------------------------|
G#|---------------------------------------------------------------|
D#|---------------------------------------------------------------|
Vibrato the hell out of these notes


("rock bends") Its hard to show the rhythm for the bend, but listen
to the CD and figure it.
D#|---------------------------------------------------------------|
A#|--2------------------------------------------------------------|
F#|--4^--4-4-4-4-4-----7^-slide-/21-------------------------------|
C#|---------------------------------------------------------------|
G#|---------------------------------------------------------------|
D#|---------------------------------------------------------------|
With your picking hand, take your index finger and do a finger tap
on the 7 while you bend the 2/4 bend 1/2 step. After that, slide
your finger up to the 21st fret and bend the 2/4 bend 1 whole step.


1/2 1/2
D#|---------------------------------------------------------------|
A#|---------------------------------------------------------------|
F#|--11^--11--9--11--9-----------11^--11--9--11--9----------------|
C#|---------------------11--9-----------------------11--9---------|
G#|---------------------------------------------------------------|
D#|---------------------------------------------------------------|


(rock bend, half step)
D#|----------------9----------------------------------------------|
A#|--7/-8--7/-8----12^--------------------------------------------|
F#|--8/-9--8/-9---------------------------------------------------|
C#|--7/-8--7/-8---------------------------------------------------|
G#|---------------------------------------------------------------|
D#|---------------------------------------------------------------|


Rock bends............... Vibrato the hell out of these notes!
D#|---------------------------------------------------------------|
A#|--2--4--5--7--9---10--12---------------------------------------|
F#|--4--6--7--9--11--12--14-----21~~~~21~~~~21~~~~~21~~~~~~-------|
C#|---------------------------------------------------------------|
G#|---------------------------------------------------------------|
D#|---------------------------------------------------------------|



************************************

| (n) Ghost note
| [n] Artificial harmonic
| b Bend
| ~ Vibrato
| / Slide up

************************************
Song info
Miracle Man
Ozzy Osbourne
2001
  • Rock
  • Hard Rock
Alternative tracks
Similar songs
Kickstart My Heart - Mötley Crüe
Spoonman - Soundgarden
No No No - Deep Purple
Killer Of Giants - Ozzy Osbourne

Hi! Hope you enjoy backing track experience.
If you want to help us in the development of the project, feel free to donate!