Over The Mountain - Ozzy Osbourne
00:00 / 00:00
Tabs and lyrics
Tunning: Standard (E A D G B e)
Over The Mountain-Ozzy Osbourne
Diary Of A Madman

Tuning:
Eb Ab Db Gb Bb Eb

( t )= trill notes


[Intro]

Drums
e-----------------------------------------------------------------|
b-----------------------------------------------------------------|
g-----------------------------------------------------------------|
d-----------------------------------------------------------------|
a---------------------------------------------------------7---7---|
e---------------------------------------------------------0---5---|

0:04
x3, pm low notes
e-----------------------------------------------------------------|
b-----------------------------------------------------------------|
g-----------------------------------------------------------------|
d-6---------------------------------------------------------------|
a-6----------------------------------------------------------7--5-|
e-4---4-4-4-4-4-4-4-4-4-4-4-4-4-4-4-4-4-4-4-4-4-4-4-4-4-4-4--0--0-|

then
e-----------------------------------------------------------------|
b-----------------------------------------------------------------|
g-----------------------------------------------------16---15-----|
d-6---------------------------------------------------------------|
a-6---------------------------------------------------14---13-----|
e-4---4-4-4-4-4-4-4-4-4-4-4-4-4-4-4-4-4-4-x~~~~~~~~~\--0----------|


[Verse 1]

e-----------------------------------------------------------------|
b-----------------------------------------------------------------|
g-----------------------------------------------------------6-----|
d-----------------------------------------------------------6-----|
a-----------------------------------------------------------4-----|
e-4-4-4-4-4-4-4-4-4-4-4-4-4-4-4-4-4-4-4-4-4-4-4-4-4-4-4-4---------|

e-----------------------------------------------------------------|
b------------------------------------------------4h5--7-----------|
g------------------------------------------------4----6-----------|
d---------------------------------------------6-------------------|
a------------------------------------------6----------------------|
e-4-4-4-4-4-4-4-4-4-4-4-4-4-4-4-4-4--4--7-------------------------|


[Chorus]

e-----------------------------------------------------------------|
b-----------------------------------------------------------------|
g-9----------11-----------9------------11-------------------------|
d-9----------11-----------9------------11-------------------------|
a-7-----------9-----------7-------------9-------------------------|
e-7-----------9-----------7-------------9-------------7--6--------|

e-----------------------------------------------------------------|
b-----------------------------------------------------------------|
g-9----------11-----------9------------11-------------------------|
d-9----------11-----------9------------11-------------------------|
a-7-----------9-----------7-------------9-------------7--7--------|
e-7-----------9-----------7-------------9-------------0--5--------|

play intro again


[Verse 2]

e-----------------7----------------7-----------------7------------|
b-----------------7----------------7-----------------7------------|
g-------------------------------------------------------------6---|
d-------------------------------------------------------------6---|
a-------------------------------------------------------------4---|
e-4-4-4-4-4-4-4-4-----4-4-4-4-4-4------4-4-4-4-4-4------4-4-------|

e------------------7----------------------------------------------|
b------------------7----------------------------4h5---7-----------|
g-----------------------------------------------4-----6-----------|
d--------------------------------------------6--------------------|
a-----------------------------------------6-----------------------|
e-4-4-4-4-4-4-4-4-----4-4-4-4-4-4---4--7--------------------------|

e-----------------7----------------7-----------------7------------|
b-----------------7----------------7-----------------7------------|
g-------------------------------------------------------------6---|
d-------------------------------------------------------------6---|
a-------------------------------------------------------------4---|
e-4-4-4-4-4-4-4-4-----4-4-4-4-4-4------4-4-4-4-4-4------4-4-------|

e------------------7----------------7-----------------------------|
b------------------7----------------7-----------5p4---7-----------|
g-----------------------------------------------4-----6-----------|
d--------------------------------------------6--------------------|
a-----------------------------------------6-----------------------|
e-4-4-4-4-4-4-4-4-----4-4-4-4-4-4------7--------------------------|


[Chorus]

play intro again, then


[Bridge]

e----------4-------------0-----0---------------------0-----0------|
b-----5------5-------------0-----------5---4------------0---------|
g-6------------6----4--------------6-------------4----------------|
d-6-----------------4--------------6-------------4----------------|
a-4-----------------2--------------4-----------0-2----------------|
e--------------------------------------------4--------------------|

e----------4-------------0-----0-------------------0--------------|
b-----5------5-------------0-----------------------0--------------|
g-6------------6----4--------------6----------2---------2--2------|
d-6-----------------4--------------6----------2---------2--2------|
a-4-----------------2--------------4----------0---------0--0------|
e-----------------------------------------2-4---------------------|


[Interlude] x3

e-----------------------------------------------------------------|
b---------7p6h7-----------9p6h9-----------7p6h7-------------------|
g---------8p6h8-----------8p6h8-----------8p6h8-------------------|
d--------------------------------------------------6--------------|
a-6---6-6--------6---6-6----------6-6-6-6----------6--------------|
e--------------------------------------------------4--------------|

then
e-----------------------------------------------------------------|
b---------7p6h7-----------9p6h9-----------7p6h7-------------------|
g---------8p6h8-----------8p6h8-----------8p6h8----4--------------|
d--------------------------------------------------4--------------|
a-6---6-6--------6---6-6----------6-6-6-6----------2--------------|
e-----------------------------------------------------------------|


[Solo]

2 gtr parts. arr for 1 gtr w/ octaver,
set to harmonize 1 octave up...this took for bloody ever
to type, so if ya need the rhythm for he solo, figure it out.

e-----------------------------------------------------------------|
b-----------------------------------------------------------------|
g-----------------------------------------------------------------|
d--------x-6~~~~~~~~~------------------------6~~~~~~--------------|
a-------x-------------5~~~~~~~-4-2-------------------5~~~~~/14----|
e-4~~~~~~~-------------------------2-2/4~~~~----------------------|

e-----4-7-5p4---4-------------------------------------------------|
b---5---------7---7p5-4---4---------------------------------------|
g-6---------------------6---6p4-----------------------------------|
d-------------------------------7-6p4-6p4---4---------------------|
a-----------------------------------------7----7~~~~~~--6~~~~~~~~-|
e-----------------------------------------------------------------|

e-----4-7-5p4---4-------------------------------------------------|
b---5---------7---7p5-4---4---------------------------------------|
g-6---------------------6---6p4-----------------------------------|
d-------------------------------7-6p4-6p4---4---------------------|
a-----------------------------------------7----7~~~~~~--6~~~~~~~~-|
e-----------------------------------------------------------------|

e-------------------------------16----------19b~~~-16------16-----|
b----------------------------------19-16-19-----------19b~~---19--|
g----------------------16-18b~~~----------------------------------|
d----------------16-18--------------------------------------------|
a-------14-16/18--------------------------------------------------|
e-14-16-----------------------------------------------------------|

dive and pull whammy bar up on v’s

e------------------------------------------------------------0-0---|
b-16h19p16-16h19p16h19p16h19vv-p16h19p16h19vvv-16h19p16h19vvv------|
g------------------------------------------------------------------|
d------------------------------------------------------------------|
a------------------------------------------------------------------|
e------------------------------------------------------------------|

e-7-8-10-7-8----7---------------------------------------------0---|
b------------10---8-10-7-8-5-7-5----------------------------------|
g--------------------------------7-6-7-4h5---4--------------------|
d------------------------------------------7---7-5---4~~~~~-------|
a--------------------------------------------------7--------------|
e-----------------------------------------------------------------|

e-3p2p0-------------------3p2p0-----------------------------------|
b-------3p2p0-------3p2p0-------3p2p0-----------------------------|
g-------------3p2p0-------------------3p2p0--2--0vvvv/12h13h14p13-|
d-----------------------------------------------------------------|
a-----------------------------------------------------------------|
e-----------------------------------------------------------------|

e-10b~~~~~~~~~rb--------------------------------------------------|
b----------------10p7\6-9p6\5-8p5\4-7p4\3-6p3\2-5p2p0h6p3p0h7p4p0-|
g-----------------------------------------------------------------|
d-----------------------------------------------------------------|
a-----------------------------------------------------------------|
e-----------------------------------------------------------------|

e-----------------------------------------------------------------|
b-----------------------------------------------------------------|
g-----------------------------------------------------------------|
d-----------------------------------------------------------------|
a----------------------------------------------x\-----------------|
e-6b~~~~~~~~~~~~~~~~~~~~~~~~~~~~~~~~~~~~~~~~~---------------------|


[3rd Verse]

e---------7--------------7---------------7------------------------|
b---------7--------------7---------------7------------------------|
g-----------------------------------------------4------6----------|
d-----------------------------------------------4------6----------|
a------------------------------------------------------4----------|
e-4-4-4-4----4-4-4-4-4-4----4-4-4-4-4-4----4-4-----4--------------|

e----------7-------------7--------------7-------------------------|
b----------7-------------7--------------7----4h5---7--------------|
g--------------------------------------------4-----6--------------|
d-----------------------------------------6-----------------------|
a-----------------------------------------------------------------|
e-4-4-4-4----4-4-4-4-4-4----4-4---4--4----------------------------|

e---------7--------------7---------------7------------------------|
b---------7--------------7---------------7------------------------|
g-----------------------------------------------4------6----------|
d-----------------------------------------------4------6----------|
a------------------------------------------------------4----------|
e-4-4-4-4----4-4-4-4-4-4----4-4-4-4-4-4----4-4-----4--------------|

e----------7-------------7----------------------------------------|
b----------7-------------7-------------------4h5---7--------------|
g--------------------------------------------4-----6p4------------|
d-----------------------------------------6-----------------------|
a---------------------------------------6-------------------------|
e-4-4-4-4----4-4-4-4-4-4----4-4---4--7----------------------------|


[Outro Solo]

e-----11-14-12p11--11----------------------------------------------|
b---12-----------14--14p12-11--11----------------------------------|
g-13-------------------------13--13p11--11-------------------------|
d-------------------------------------13--14-13p11-13p11--11-------|
a-------------------------------------------------------14---14-13-|
e------------------------------------------------------------------|

e-----11-14-12p11--11----------------------------------------------|
b---12-----------14--14p12-11--11----------------------------------|
g-13-------------------------13--13p11--11-------------------------|
d-------------------------------------13--14-13p11-13p11--11-------|
a-------------------------------------------------------14---14-13-|
e------------------------------------------------------------------|

e---------------------------------------14-12-11-------------------|
b-------------------------(11t12)---------------14-12-11-----------|
g-------------------11-13-----------13-------------------13-11-13--|b
d----------11-13-14------------------------------------------------|
a-11-13-14---------------------------------------------------------|
e------------------------------------------------------------------|

e-------(11)\--19b~~~~p16----16-----------------------------------|
b-------------------------19----19b~~~~~~~~~~~--------------------|
g-13b~~~----------------------------------------------------------|
d-----------------------------------------------------------------|
a-----------------------------------------------------------------|
e-----------------------------------------------------------------|

e-----------------------------------------------------------------|
b-----------------------------------------------------------------|
g-6---------------------------------------------------------------|
d-6-----------------------------6---------------------------------|
a-4-----------------------7--7--6---------------------------------|
e-4-----------------------0--5--4---------------------------------|


that’s all





************************************

| x Dead note
| h Hammer-on
| p Pull-off
| t Tapping
| / Slide up
| \ Slide down
| ~ Vibrato

************************************
Tunning: Standard (E A D G B e)
SONG: Over the Mountain
ARTIST: Ozzy Osbourne
TITLE: Diary of a Madman
WRITTEN BY: Ozzy Osbourne, Randy Rhoads and Bob Daisley
TRANSCRIBED BY: Bryan Mier

X = muffled string
------- = strings
\ = slide down guitar
/ = slide up guitar
> = pick slide
| = bars
h = hammer-on
pp = pull-off
t = tap with right hand (pick hand)
b = bend to the note specified (1/2 note is the same as 1 fret)
P.H. = pinch harmonic
tr = trill

Note! There may be some mistakes in solo

Tune down 1/2 step

Intro play 4 times
Rhy. Fig. 1 (end Rhy. Fig. 1)
|-------|--------------------------------|---------------------------------|
|-------|--------------------------------|---------------------------------|
|-------|--------------------------------|---------------------------------|
|-------|-6------------------------------|---------------------------------|
|--7--7-|-6------------------------------|-------------------------7--7----|
|--0--5-|-4--4-4-4-4-4-4-4-4-4-4-4-4-4-4-|-4-4-4-4-4-4-4-4-4-4-4-4-0--5----|

Rhy. Fig. 2
Over the mountain...
|--------------------------|---------------------------------|-------------|
|----------------12----11--|---------------------------------|-------------|
|--------------------------|---------------------------------|-------------|
|----------x\-----9-----8--|---------------------------------|-------------|
|--------------------------|---------------------------------|-------------|
|--4-4-4-4-----------------|-4-4-4-4-4-4-4-4-4-4-4-4-4-4-4-4-|-4-4-4-4-4-4-|

take me across the sky... (end Rhy. Fig. 2)
|-----------------|---------------------------------|----------------------|
|-----------------|---------------------------------|----------------------|
|--------------6--|---------------------------------|-------------8h9--11--|
|--------------6--|---------------------------------|----------6--9----11--|
|--------------4--|---------------------------------|--------6-------------|
|-4-4-4-4-4-4-----|-4-4-4-4-4-4-4-4-4-4-4-4-4-4-4-4-|-4-/-7----------------|

Play Rhy. Fig. 2 (2 3/4 times)

E5 F#5 E5 F#5 B A#
I heard them tell me that this land of dreams was now.

E5 F#5 E5 F#5 A5 G#5
I told them I had ridden shooting stars and said I'd show them how.

Play Rhy. Fig. 1 (1 1/2 times)

Then Rhy. Fig. 2 (3 3/4 times)

E5 F#5 E5 F#5 B A#
I heard them tell me that this land of dreams was now.

E5 F#5 E5 F#5 A5 G#5
I told them I had ridden shooting stars and said I'd show them how.

Play Rhy. Fig. 1 (1 1/2 times)


Don't need no astrology...
|--------------------|--------0-----0-|-------0-----0-|----0---------------|
|--------------------|------------0---|-----------0---|--------------------|
|------------------4-|--6-------------|-4-------------|-6-------------4----|
|----------x\--4---4-|--6-------------|-4-------------|-6-------------4----|
|--------------4---2-|--4-------------|-2-------------|-4-----------0-2----|
|-4-4-4-4-x----2-----|----------------|---------------|-----------4--------|

You don't need a ticket ...
|--0-------0-|--------0-----0-|--------0------0-|-------------|-0----------|
|------0-----|------------0---|-------------0---|-------------|-0----------|
|------------|-6--------------|-4---------------|-6---------2-|----2--2----|
|------------|-6--------------|-4---------------|-6---------2-|----2--2----|
|------------|-4--------------|-2---------------|-4---------0-|----0--0----|
|------------|----------------|-----------------|-------2-4---|------------|

Interlude Play 4 times
Rhy. Fig. 4 (end Rhy. Fig. 4)
|-----------------------------|---------------------*11--------------------|
|---------7p6h7---------9p6h9-|----------7p6h7-------------*11-------------|
|---------8p6h8---------8p6h8-|----------8p6h8-------*8--------------------|
|-----------------------------|----------------------6------*8-------------|
|--6-6-6---------6-6-6--------|-6-6-6-6--------------6---------------------|
|-----------------------------|----------------------4---------------------|
* = Gtr. 2
Guitar solo
Gtr. 1
|---------------|-------------------------|-----------------|--------------|
|---------------|-------------------------|-----------------|--------------|
|------------13-|-------------------------|--------------13-|---------/16--|
|---------------|--------12--------11-9---|-----------------|---12---------|
|-11------------|-----------------------9-|-9/11------------|--------------|
|---------------|-------------------------|-----------------|--------------|
| |
|Gtr. 2 |
|-----------------------------------------|--------------------------------|
|-----------------------------------------|--------------------------------|
|-----------------------------------------|--------------------------------|
|-------------6---------------------------|---------------6----------------|
|-------------------------5---------4-2---|----------------------5----/14--|
|--4------------------------------------2-|-2-/4---------------------------|

Rhy. Fig. 5
|-------16-19-17p16----16-------------------------|-----------------------|
|----17-------------19----19p17-16----16----------|-----------------------|
|-18-------------------------------18----18p16----|-16--------------------|
|----------------------------------------------19-|----19-18p16-18p16-----|
|-------------------------------------------------|-------------------19--|
|-------------------------------------------------|-----------------------|

|--------4--7--5pp4-----4-------------------------|------------------------|
|-----5--------------7-----7pp5--4-----4----------|------------------------|
|--6--------------------------------6-----6pp4----|--4---------------------|
|-----------------------------------------------7-|-----7--6pp4--6pp4------|
|-------------------------------------------------|--------------------7---|
|-------------------------------------------------|------------------------|
play 2 times
(end Rhy. Fig. 5) b:full b:full b:full
|-------------|-----------------------------16-------19(19)-|-16--^-16-----|
|-------------|--------------------------^-----19p16--------|----19----19--|
|-------------|----------------------16-18------------------|--------------|
|-16----------|----------------16-18------------------------|--------------|
|----19----18-|-------14-16/18------------------------------|--------------|
|-------------|-14-16---------------------------------------|--------------|
| |
| |
|-------------|
|-------------|
|-------------|
|--4----------|
|-----7-----6-|
|-------------|

h p h p h p hh pp h p h p h p h p h p h p
|--------------------------------------------------------------------------|
|-16-19-16-16-19-16-19-16--19--16-19-16-19-16-19-16-19-16-19-16-19-16------|
|--------------------------------------------------------------------------|
|----------------use trem. bar---------------------------------------------|
|--------------------------------------------------------------------------|
|--------------------------------------------------------------------------|

h p
|------7-8-10-7-8----7---------------------|----------------------------0--|
|-----------------10---8-10-7-8-5-7-5------|-------------------------------|
|-9-9---------------------------------7--6-|-7-4-5-4---4-------------------|
|------------------------------------------|---------7---7-5---4-----------|
|------------------------------------------|-----------------7-------------|
|------------------------------------------|-------------------------------|

p p p p p p p p p p p p p p h p h p
|--3-2-0-------------------3-2-0-----------------|-------------------------|
|--------3-2-0-------3-2-0-------3-2-0-----------|-------------------------|
|--------------3-2-0-------------------3-2-0-2-0-|-(0)-----/(14)-13-14-13--|
|------------------------------------------------|-------------------------|
|------------------------------------------------|-------------------------|
|------------------------------------------------|-------------------------|
b:full p p p p p p p h p p h p p
|-10----------(10)-|-------------------------------------------------------|
|------------------|-10-7\6--9-6\5--8-5\4--7-4\3--6-3\2-5-2-0-6-3-0-7-4-0--|
|------------------|-------------------------------------------------------|
|------------------|-------------------------------------------------------|
|------------------|-------------------------------------------------------|
|------------------|-------------------------------------------------------|

b:1/2 b:full b:1 1/2
|-----------------|--------------------------------------------------------|
|-----------------|--------------------------------------------------------|
|-----------------|--------------------------------------------------------|
|-----------------|--------------------------------------------------------|
|----^------------|-------------x\-----------------------------------------|
|----6-------(6)--|--(6)---------------------------------------------------|

Play Rhy. Fig. 1 (1 1/2 times)

Then Rhy. Fig. 2 (3 3/4 times)

Then Rhy. Fig. 3

Then Rhy. Fig. 4 (4 times)

OUTRO
p p p p p
|-------11-14-12-11----11-------------------------|------------------------|
|----12-------------14----14-12-11----11----------|------------------------|
|-13-------------------------------13----13-11----|-11---------------------|
|----------------------------------------------14-|----14-13-11-13-11------|
|-------------------------------------------------|-------------------14---|
|-------------------------------------------------|------------------------|

p p p
|----------------|-------11-14-12-11----11---------------------------------|
|----------------|----12-------------14----14-12-11----11------------------|
|----------------|-13-------------------------------13----13-11------------|
|-11-------------|----------------------------------------------14---------|
|----14------13--|---------------------------------------------------------|
|----------------|---------------------------------------------------------|

p p tr.....
|-------------------------------------|------------------------------------|
|-------------------------------------|-------------------------11-(12)----|
|-11----------------------------------|-------------------11-13---------13-|
|----14-13-11-13-11----11-------------|----------11-13-14------------------|
|-------------------14----14------13--|-11-13-14---------------------------|
|-------------------------------------|------------------------------------|

b:full b:full p b:full
|--14-12-11-------------------------(11)\-|-19----(19)-16----16--^---------|
|-----------14-12-11--------^-------------|---------------19----19---------|
|--------------------13-11-13-------------|--------------------------------|
|-----------------------------------------|--------------------------------|
|-----------------------------------------|--------------------------------|
|-----------------------------------------|--------------------------------|


|--------------------------------------------------------------------------|
|--------------------------------------------------------------------------|
|--------------------------------------------------------------------------|
|--------6-----------------------------------------------------------------|
|--7--7--6-----------------------------------------------------------------|
|--0--5--4-----------------------------------------------------------------|
Song info
Over The Mountain
Ozzy Osbourne
2001
  • Rock
  • Hard Rock
  • Heavy Metal
Alternative tracks
Similar songs
Soldier Of Fortune - Loudness
No More Mr. Nice Guy - Alice Cooper
Public Enemy No 1 - Megadeth
Sober - Tool
Hate Crew Deathroll - Children of Bodom

Hi! Hope you enjoy backing track experience.
If you want to help us in the development of the project, feel free to donate!