Alive - P.O.D.
00:00 / 00:00
Tabs and lyrics
Tunning: Standard (E A D G B e)
pod, alive.
Tabbed by jordan, xambiguousx00@aol.com.

title: alive
band: pod
cd: satellite



intro/verse

e:----------------------------------------------------
b:----------------------------------------------------
g:----------------------------------------------------
d:-00030--5555-88888888--8888-3333--------------------
a:-00030--5555-88888888--8888-3333--------------------D:-00030--5555-88888888--8888-3333--------------------
x6 first; x4 second

chorus:

e:----------------------------------------------------
b:----------------------------------------------------
g:----------------------------------------------------
d:-8888888888888888-0000000000000000-3333333333333333-
a:-8888888888888888-0000000000000000-3333333333333333-
D:-8888888888888888-0000000000000000-3333333333333333-

e:----------------------------------------------------
b:---------------6-5-3-5-3----------------------------
g:-------------------------5--------------------------
d:-0--33333333----------------------------------------
a:-0--33333333----------------------------------------
D:-0--33333333----------------------------------------
x2 at each chorus

e:-12-13-12-12-13-------------------------------------
b:----------------------------------------------------
g:----------------------------------------------------
d:----------------------------------------------------
a:----------------------------------------------------
D:----------------------------------------------------
^repeat fast thruout song,listen for parts Lets call it the High Notes

------------12-13-12-12-13-12-13-12-12-13-12-13-12-12-
------------------------------------------------------
7--10--9--5-------------------------------------------
------------------------------------------------------
------------------------------------------------------
------------------------------------------------------

e:----------------------------------------------------
b:----------------------------------------------------
g:--7--10--9--5---------------------------------------
d:----------------------------------------------------
a:----------------------------------------------------
D:----------------------------------------------------

Bunch of squeaky and sharp sounds, then

-------------12-13-12-12-13-12-13-12-12-13-12-13-12-12
------------------------------------------------------
-7--10--9--5------------------------------------------
------------------------------------------------------
------------------------------------------------------
------------------------------------------------------
Now back to the chorus 3x With Repetetive High Notes on a 2nd guitar

------------------------------------------------------
------------------------------------------------------
------------------------------------------------------
---000-3-00000-3-0-------x4---------------------------
---000-3-00000-3-0------------------------------------
---000-3-00000-3-0------------------------------------
Outro


if u have any comments email me at xambiguousx00@aol.com

:: Ultimate Guitar Archive ::
http://www.ultimate-guitar.com



Tunning: Drop C (C G C F A D)
Song: Alive Band: P.O.D. Album: Satellite Tabbed by: Alejandro D'Brot alexd@terra.com.pe p= pull-off h= hammer-on Tuning: Low C - CGCFAD [ intro & main riff ] D|--------------------------------------------------------| A|--------------------------------------------------------| F|--------------2-2-2-2-5-5-5--5-5-5-5-5----5-5-5-5-------| C|-2-2-2-0-2----2-2-2-2-5-5-5--5-5-5-5-5----5-5-5-5-5-5-5-| G|-2-2-2-0-2----0-0-0-0-3-3-3--3-3-3-3-3----3-3-3-3-5-5-5-| C|-2-2-2-0-2----------------------------------------5-5-5-| D C G A# A# F ...play that six times... ...then end it by playing this just one time... D|--------------------------------------------------------| A|--------------------------------------------------------| F|--------------2-2-2-2-5-5-5--5-5-5-5-5------------------| C|-2-2-2-0-2----2-2-2-2-5-5-5--5-5-5-5-5----5-5-0-0-5-5-0-| G|-2-2-2-0-2----0-0-0-0-3-3-3--3-3-3-3-3----5-5-0-0-5-5-0-| C|-2-2-2-0-2--------------------------------5-5-0-0-5-5-0-| D C G A# F C F C [ chorus ] ..play this two times... "...I... feel so alive..." D|---------------3------------------------------------------------| A|---------------5------------------------------------------------| F|-5-5-5-5-5-5-5-5--5-5-5-5-7-7-7---------------------------------| C|-5-5-5-5-5-5-5----5-5-5-5-7-7-7-2-2-2-2-2-2-2-2-2-2-2-2-2-2-2-2-| G|-3-3-3-3-3-3-3----3-3-3-3-5-5-5-2-2-2-2-2-2-2-2-2-2-2-2-2-2-2-2-| C|--------------------------------2-2-2-2-2-2-2-2-2-2-2-2-2-2-2-2-| A#(7x) A# C D(16x) D|--------------------------------------------------------------| A|--------------------------------------------------------------| F|--------------------------------------------------------------| C|-5-5-5-5-5-5-5-5-5-5-5-5-5----5-5-5-5-5-5-5-5-----------------| G|-5-5-5-5-5-5-5-5-5-5-5-5-5-0--5-5-5-5-5-5-5-5/10-9-7-9--7-5-0-| C|-5-5-5-5-5-5-5-5-5-5-5-5-5-0--5-5-5-5-5-5-5-5-----------------| F(13x) F(8x) ...now play the first part of the main riff three times and the second part once... ...and then play the chorus... ..now for the bridge... [ bridge ] D|-------------------14h15p14-(7x)-14h15p14h15-*----| A|--------------------------------------------------| F|--------------------------------------------------| C|--------------------------------------------------| G|-7----10-9----5-----------------------------------| C|--------------------------------------------------| "...and know that I know you..." D|--------------------------------------------------| A|--------------------------------------------------| F|--------------------------------------------------| C|------------------5-------------------------------| G|-7----10-9----5-----------------------------------| C|--------------------------------------------------| ^ let ring & distort D|-------------------14h15p14-(7x)-14h15p14h15-*----| A|--------------------------------------------------| F|--------------------------------------------------| C|--------------------------------------------------| G|-7----10-9----5-----------------------------------| C|--------------------------------------------------| [* after this the notes sort of blend in with each other, I have ] [ no idea what kind of effect Marcos is using ] ...then play the chorus four times... [ the third and fourth time the chorus is played, the first part of ] [ the bridge part is overlapped and the chorus is cut short (listen to the song) ] ...make a short pause and play this four times... D|------------------------------| A|------------------------------| F|------------------------------| C|-2-2-2-0-2---2-2-0-2-0-2------| G|-2-2-2-0-2---2-2-0-2-0-2------| C|-2-2-2-0-2---2-2-0-2-0-2------| ...
Tunning: D tuning (D G C F A D)
Song: Alive
Artist: P.O.D.
Album: Satellite
Tabbed by: Christian / silent_warrior_@hotmail.com

I seen this song tabbed wrong alot. This is the most accurate..the tuning method came straight
from the guitarists mouth in an interview I saw. And with the help of a live video of this song,
I tabbed this..so enjoy! Use a lot of distortion. Please rate this tab if you use it..thanks.

[Intro and Verse] - 0:01-0:35
D|-------------------------------------------------|
A|-------------------------------------------------|
F|-----------------------5-5-5-5-5--5-5-5-5--------| x6
C|-2-2-2-0-2---7-7-7-7---5-5-5-5-5--5-5-5-5--5-5-5-|
G|-2-2-2-0-2---7-7-7-7---3-3-3-3-3--3-3-3-3--5-5-5-|
D|-2-2-2-0-2---5-5-5-5-----------------------5-5-5-|

[Chorus] - 0:36-0:59
D|--------------------------------------------------------------------------|
A|--------------------------------------------------------------------------|
F|-----------------5-5-5-5-5-5-5---7-7-7-7-7-7-7-----7-7-7-7----------------| x2
C|-7-7-7-7-7-7-7---5-5-5-5-5-5-5---7-7-7-7-7-7-7--0--7-7-7-7--------5-------|
G|-7-7-7-7-7-7-7---3-3-3-3-3-3-3---5-5-5-5-5-5-5--0--5-5-5-5--9-8-0---7-6-0-|
D|-5-5-5-5-5-5-5---0-0-0-0-0-0-0---0-0-0-0-0-0-0--0--0-0-0-0----------------|

[Verse] - 1:00-1:23
D|------------------------------------------------|
A|------------------------------------------------|
F|-----------------------5-5-5-5---5-5-5-5--------| x4
C|-2-2-2-0-2---7-7-7-7---5-5-5-5---5-5-5-5--5-5-5-|
G|-2-2-2-0-2---7-7-7-7---3-3-3-3---3-3-3-3--5-5-5-|
D|-2-2-2-0-2---5-5-5-5----------------------5-5-5-|

[Chorus] - 1:23 - 1:47
D|--------------------------------------------------------------------------|
A|--------------------------------------------------------------------------|
F|-----------------5-5-5-5-5-5-5---7-7-7-7-7-7-7-----7-7-7-7----------------| x2
C|-7-7-7-7-7-7-7---5-5-5-5-5-5-5---7-7-7-7-7-7-7--0--7-7-7-7--------5-------|
G|-7-7-7-7-7-7-7---3-3-3-3-3-3-3---5-5-5-5-5-5-5--0--5-5-5-5--9-8-0---7-6-0-|
D|-5-5-5-5-5-5-5---0-0-0-0-0-0-0---0-0-0-0-0-0-0--0--0-0-0-0----------------|

[Bridge] 1:47 - 2:22 (with phaser or flanger effect)
D|----------| |-14h15p14-| |----------| |-14h15p14-|
A|----------| |----------| |----------| |----------|
F|----------| x1 |----------| x10 |----------| x2 |----------| x10
C|---6-5--0-| |----------| |---6-5--0-| |----------|
G|-5--------| |----------| |-5--------| |----------|
D|----------| |----------| |----------| |----------|

[Chorus] - 2:23 - 3:08 (there's some high pitched 14 & 15s as in the previous section in between)
D|--------------------------------------------------------------------------|
A|--------------------------------------------------------------------------|
F|-----------------5-5-5-5-5-5-5---7-7-7-7-7-7-7-----7-7-7-7----------------| x3
C|-7-7-7-7-7-7-7---5-5-5-5-5-5-5---7-7-7-7-7-7-7--0--7-7-7-7--------5-------|
G|-7-7-7-7-7-7-7---3-3-3-3-3-3-3---5-5-5-5-5-5-5--0--5-5-5-5--9-8-0---7-6-0-|
D|-5-5-5-5-5-5-5---0-0-0-0-0-0-0---0-0-0-0-0-0-0--0--0-0-0-0----------------|

[Outro] 3:10 - 3:21
D|------------------------|
A|------------------------|
F|------------------------| x4
C|-2-2-2-0-2--0-0-0-2-0-2-|
G|-2-2-2-0-2--0-0-0-2-0-2-|
D|-2-2-2-0-2--0-0-0-2-0-2-|

Thanks to P.O.D for writing this great song.

************************************

| h Hammer-on
| p Pull-off

************************************
Tunning: Standard (E A D G B e)
Band: P.O.D
Tabed By: Jeff Harding (username: BlindLXD) Poo_poo_punk@hotmail.com


Riff1 (Intro/verse)
E-------------------------------------
A-------------------------------------
F-----------2222-55555555-5555--------
C--222-0-2--2222-55555555-5555-555----
G--222-0-2--0000-33333333-3333-555----
C--222-0-2---------------------555----




(Chorus)
E----------------2---------|------------------------------|
A----------------3---------|------------------------------|
F--0-------------0---------|------------------------------|
C--x-------------x---------|--2-2-2-2-5-5-5-4--4--4--4--0-|
G--3-3-3-3-3-3-3-3---------|--2-2-2-2-2-2-2-2--2--2--2--0-|
C--------------------------|--2-2-2-2-2-2-2-2--2--2--2--0-|

E--------------------------------|-----------------------------------|
A--------------------------------|-----------------------------------|
F--------------------------------|------------------12\11\9-11-9-7---|
C--5-5-5-5-5-5-5-5-5-5-5-5-5-----|--5-5-5-5-5-5-5-5------------------|
G--5-5-5-5-5-5-5-5-5-5-5-5-5-----|--5-5-5-5-5-5-5-5-10\9-\7/9--7/5h0-|
C--5-5-5-5-5-5-5-5-5-5-5-5-5-0---|--5-5-5-5-5-5-5-5------------------|




solo
--------------------|--------------------|
--------------------|--------------------|
-----------------0--|--------------------|
--2-----------------|--4------0----------|
--------------------|--------------------|
--------------------|--------------------|

--14h15h14--15h14--15h14--15h14--15h14--|--15h14--15h14--15h14--15h14--15h14h15h14h15-|
----------------------------------------|---------------------------------------------|
----------------------------------------|---------------------------------------------|
----------------------------------------|---------------------------------------------|
----------------------------------------|---------------------------------------------|
----------------------------------------|---------------------------------------------|

--------------------|--------------------|
--------------------|--------------------|
-----------------0--|--------------------|
--2-----------------|--4------0----------|
--------------------|--------------------|
--------------------|--------------------|

--0-----------------|--------------------|
--0-----------------|--------------------|
--0-----------------|--------------------|
--------------------|--------------------|
-----------x--------|--x--------x--------|
--------------------|--------------------|


E-----------------------------|
A-----------------------------|
F-----------------------------|
C--2-2-2-0-2-----2-2-0-2-0-2--|
G--2-2-2-0-2-----2-2-0-2-0-2--|
C--2-2-2-0-2-----2-2-0-2-0-2--|


ENJOI
Tunning: Standard (E A D G B e)
Alive-P.O.D.
Satellite

Drop C
C G C F A D

fig 1. intro/verses x 3

d--------------------------------------------------------------
a--------------------------------------------------------------
f--------------------------------------------------------------
c-2-2-2-0-2---------------5-5-5-5-5-5-5-5-------5-5-5-5-5-5-5--
g-2-2-2-0-2-------0-0-0-0-3-3-3-3-3-3-3-3-------3-3-3-3-5-5-5--
c-2-2-2-0-2---------------------------------------------5-5-5--

fill 1

d--------------------------------------------------------------
a--------------------------------------------------------------
f--------------------------------------------------------------
c-2-2-2-0-2---------------5-5-5-5-5-5-5-5-------5-5-----5-5----
g-2-2-2-0-2-------0-0-0-0-3-3-3-3-3-3-3-3-------5-5-----5-5----
c-2-2-2-0-2-------------------------------------5-5-0-0-5-5-0--

Chorus:

d---------------2----------------------------------------------
a---------------3----------------------------------------------
f-0-0-0-0-0-0-0-0----------------------------------------------
c-x-x-x-x-x-x-x-x------0--0-2-2-2-2-5-5-5-4-4-4--4-4-4--0------
g-3-3-3-3-3-3-3-3------0--0-2-2-2-2-2-2-2-2-2-2--2-2-2--0------
c----------------------0--0-2-2-2-2-2-2-2-2-2-2--2-2-2--0------

d--------------------------------------------------------------
a--------------------------------------------------------------
f--------------------------------------------------------------
c-5-5-5-5-5-5-5-5-5-5-5-5-5-----5-5-5-5-5-5-5-5----------------
g-5-5-5-5-5-5-5-5-5-5-5-5-5-----5-5-5-5-5-5-5-5-10p9\7-9--7\5p0
c-5-5-5-5-5-5-5-5-5-5-5-5-5-0---5-5-5-5-5-5-5-5----------------

interlude: w/ delay and flanger

d------------------------14h15p14--15p14--15p14--15p14-15p14---
a--------------------------------------------------------------
f--------------------------------------------------------------
c-2-------5-4-------0------------------------------------------
g--------------------------------------------------------------
c--------------------------------------------------------------

d-15p14--15p14--15p14--15p14h15p14h15--------------------------
a--------------------------------------------------------------
f--------------------------------------------------------------
c--------------------------------------------------------------
g--------------------------------------------------------------
c--------------------------------------------------------------

breakdown

d------------------------0-------------------------------------
a------------------------0-------------------------------------
f------------------------0-------------------------------------
c-2-------5-4-------0------------------------------------------
g---------------------------x\\\\pick-slide--x\\\\\\\\\--------
c--------------------------------------------------------------

d-----------------------------14h15p14--15p14--15p14-15p14-14--
a--------------------------------------------------------------
f--------------------------------------------------------------
c-2-------5-4-------0------------------------------------------
g---------------------------0----------------------------------
c--------------------------------------------------------------

outro:

d--------------------------------------------------------------
a--------------------------------------------------------------
f--------------------------------------------------------------
c-2-2-2-0-2--------2-2-0-2-0-2----2-2-2-0-2--------2-2-0-2-0-2-
g-2-2-2-0-2--------2-2-0-2-0-2----2-2-2-0-2--------2-2-0-2-0-2-
c-2-2-2-0-2--------2-2-0-2-0-2----2-2-2-0-2--------2-2-0-2-0-2-

d--------------------------------------------------------------
a--------------------------------------------------------------
f--------------------------------------------------------------
c-2-2-2-0-2--------2-2-0-2-0-2----2-2-2-0-2--------2-2-0-2-0-4-
g-2-2-2-0-2--------2-2-0-2-0-2----2-2-2-0-2--------2-2-0-2-0-2-
c-2-2-2-0-2--------2-2-0-2-0-2----2-2-2-0-2--------2-2-0-2-0-2-

that?s it

trevor jones
timmy91199@yahoo.ca
Song info
Alive
P.O.D.
2001
  • Rock
  • Acoustic
  • Alternative Rock
Alternative tracks
Similar songs
Pretty Noose - Soundgarden
Figured You Out - Nickelback
Burden - Opeth
Tompkins Square Park - Mumford and Sons
Debaser - Pixies

Hi! Hope you enjoy backing track experience.
If you want to help us in the development of the project, feel free to donate!