Hit Me With Your Best Shot - Pat Benatar
00:00 / 00:00
Tabs and lyrics
Tunning: Standard (E A D G B e)
[First Part]

e|-----------------|-----------------|-----------------|-----------------|
B|-----------------|-----------------|-----------------|-----------------|
G|-9-----2-2-----6-|-6---4-4---------|-9-----2-2-----6-|-6-4-4-2-2-4-4---|
D|-9-----2-2-----6-|-6---4-4---------|-9-----2-2-----6-|-6-4-4-2-2-4-4---| x2
A|-7-----0-0-----4-|-4---2-2---------|-7-----0-0-----4-|-4-2-2-0-0-2-2---|
E|-----------------|-----------------|-----------------|-----------------|


[Second Part]

e|--------------------------------------------------------------|
B|--------------------------------------------------------------|
G|--------------------------------------------------------------|
D|-9---8--6---2--4----------------------------------------------| x2
A|-7---6--4---0--2----2-2-2-2-2-2-2-2-2-2-2-2-2-2-2-2-----------|
E|--------------------------------------------------------------|


Palm mute the single notes, slowly open up towards the end.


Play first part again.


Second Part again.


First Part again.


[Solo here] (1:15)

e|--------------------------------------------------------------------------|
B|-----5-7-5-4---------------5p-4-4-4-4p-2-2-2-0h-2p-0----------------------|
G|-4-6---------6-4-4h-6p-4h-------------------------------------------------|
D|--------------------------------------------------------------------------|
A|--------------------------------------------------------------------------|
E|--------------------------------------------------------------------------|

(1:19)

e|--------------------------------------------------------------------------|
B|-0h-2p-0h-2p-0h-2p-0h-2p-0h-2--2h-4p-2h-4p-2h-4p-2h-4p-2h-4---------------|
G|--------------------------------------------------------------------------|
D|--------------------------------------------------------------------------|
A|--------------------------------------------------------------------------|
E|--------------------------------------------------------------------------|

e|-------------------------------------------------------9/2----------------|
B|-4h-5p-4h-5p-4h-5p-4h-5p-4h-5--5h-7p-5h-7p-5h-7p-5h-7---------------------|
G|--------------------------------------------------------------------------|
D|--------------------------------------------------------------------------|
A|--------------------------------------------------------------------------|
E|--------------------------------------------------------------------------|

(1:23)

e|-0h-2--0h-2--0h-2--2--0h-2p-0---0h-2--0h-2--0h-2--2--0h-2p-0--------------|
B|--------------------------------------------------------------------------|
G|--------------------------------------------------------------------------|
D|--------------------------------------------------------------------------|
A|--------------------------------------------------------------------------|
E|--------------------------------------------------------------------------|

(1:27)

e|--7--6--4--4/1-------------------14----14----14----14----14----14---------|
B|----------------2(Bend)-2-----------12----12----12----12----12----12------|
G|--------------------------4-----------------------------------------------|
D|--------------------------------------------------------------------------|
A|--------------------------------------------------------------------------|
E|--------------------------------------------------------------------------|

e|--------------------------------------------------------------------------|
B|-12-----------------------------------------------------------------------|
G|----11-----------------------------------------------5(full bend) 4-------|
D|-------------------14--------14--------14--14-14--------------------------|
A|-------------10/12-----10/12-----10/12-----12-12--2-----------------------|
E|--------------------------------------------------0-----------------------|

(1:41)

e|--------------------------------------------------------------------------|
B|--------------------------------------------------------------------------|
G|--9--9------------------------------8-8-8-8-9-----------------------------|
D|--------9--9----9-9-9-9-11-11-11-11---------------------------------------|
A|-----------------(palm mute)----------------------------------------------|
E|--------------------------------------------------------------------------|

Solo over


[Quiet Part]

(palm muted)

e|--------------------------------------------------------------------------|
B|-5------5-4-------2------2------2-----------------------------------------|
G|---4--------4---4---4---------1---4h-6p-4--------4------------------------|
D|-----4--------2-------2-----4----------------4-----4-------1--------------| x2
A|--------------------------4----------------2---2-----2---4----------------|
E|--------------------------------------------------------------------------|


First Part again

The chords switch up a bit at the end, very easy to find out.

Thanks for trying my tab, e-mail me if you have any questions or comments.

**********************

| / slide up
| \ slide down
| h hammer-on
| p pull-off
| ~ vibrato
| + harmonic
| x Mute note

**********************
Song info
Hit Me With Your Best Shot
Pat Benatar
2001
  • Rock
  • Pop Rock
Alternative tracks
Similar songs
Know By Now - Robert Palmer
China Grove - The Doobie Brothers
Jet - Paul McCartney
Do It Again - Steely Dan
Desire - U2

Hi! Hope you enjoy backing track experience.
If you want to help us in the development of the project, feel free to donate!