Garden - Pearl Jam
00:00 / 00:00
Tabs and lyrics
Tunning: Standard (E A D G B e)
Garden
Pearl Jam
Ten

I didn't see this on the archive yet, so I thought I'd give it a shot.
The bridge is NOT here, but the main riff and the chorus parts are
pretty easy. Feel free to tack on any other parts you've figured out.
Q's/comments to Chad (pimentec@sas.upenn.edu)

Verse Riff- let strings ring throughout. Works best finger-style

e--2p0-0-------0------0-----|-2p0-0-------0---0-----|-2p0-0-------0-----0----|
b--------0---1---1------1---|-------0---1---1---1---|-------0---1---1-----1--|
g--2-------2-------2------2-|-2-------2-----------2-|-2-------2-------2-----2|

e--2p0-0-------|
b--------0---3-|
g--2-------2-2-|

Chorus (?)- Barre Chords

Am G5 C(5) B
e-5- e--- e--- e---
b-5- b--- b(5) b-4-
g-5- g--- g-5- g-4-
d-7- d-5- d-5- d-4-
a-7- a-5- a-3- a-2-
E-5- E-3- E--- E---

Am G5 C5
I will walk with my hands bound
Am G5 C5
I will walk with my face blood
Am G5 C5
I will walk with my (something else)
C B To Riff 1
Into your garden, garden of stone

Anybody knows the next part (the "I don't need what you have to give" part)
please tack it on.

---------------------------------------------------------------------------
"Bye-Bye everybody!" - Dr. Nick Riviera
---------------------------------------------------------------------------
Tunning: Standard (E A D G B e)
·Pearl Jam
··"Garden"
···Ten

···tabbed by: Federico Solla···

This is the ALMOST FULL version (except for the solo) there already is another version
of this song that is quite good, but there are some parts missing (the bringe, for
example).Then listen to the record to get the idea of the song's structure. Here´s
my version of GARDEN:



···INTRO:
A2 Am A2 Am A2 Am
e--2p0-0-------0------0-----|-2p0-0-------0---0-----|-2p0-0-------0-----0----|
b--------0---1---1------1---|-------0---1---1---1---|-------0---1---1-----1--|
g--2-------2-------2------2-|-2-------2-----------2-|-2-------2-------2-----2|
D---------------------------|-----------------------|------------------------|
A---------------------------|-----------------------|------------------------|
E---------------------------|-----------------------|------------------------|
···1st. CHORUS:
Am G F/C
I will walk with my hands bound
Am G F/C
I will walk with my face blood
Am G F/C
I will walk with my shadow flag
Am G F/C
Into your garden, garden of stone

···BRIDGE
Repeat INTRO and 1st. CHORUS, but here enters the BRIDGE, and these are the chors used.
Listen to the record to get the idea for how to play them, how many times, etc.:

Am Am/G D/F# F
e|--------------------||
B|-1----1-----3----1--||
G|-2----2-----2----2--||
D|-2----2-----0----3--||
A|-0------------------||
E|------3-----2----1--||

···SOLO···(improvise something in the A pentatonic)

···CHORDs USED:

Am : x02210
A2 : x02200
G : 320033 or 355433
F/C : x33210
Am/G: 3x221x
D/F#: 2x023x
Tunning: Standard (E A D G B e)
Garden-Pearl Jam

This is one of my favourite Pearl Jam songs and this is my first tab and I think it’s pretty good.
Enjoy.


e—-2^0-0-------0------0-----|-2^0-0-------0---0-----|-2^0-0-------0-----0----|
B--------0---1---1------1---|-------0---1---1---1---|-------0---1---1-----1--|
G--2-------2-------2------2-|-2-------2-----------2-|-2-------2-------2-----2|
D---------------------------|-----------------------|------------------------|
A---------------------------|-----------------------|------------------------|
E---------------------------|-----------------------|------------------------|


Use these chords to play the chorus
Am G F/C
e|-5----3----1-------------------------------------------------------------|
B|-5----3----1-------------------------------------------------------------|
G|-5----4----2-------------------------------------------------------------|
D|-7----5----3-------------------------------------------------------------|
A|-7----5----3-------------------------------------------------------------|
E|-5----3------------------------------------------------------------------|


The bridge might be in drop D for the D5 chord in there but the rest of the song isn’t
drop D so I’m leaving it that way

e|---------------------------------------------------------------------------|
B|----------33---------------------------------------------------------------|
G|----------22---------------------------------------------------------------|
D|-77-55-44-00---------------------------------------------------------------|
A|-77-55-44------------------------------------------------------------------|
E|-55-33-22------------------------------------------------------------------|


[Solo]

e|--------------------------------|-----------5----------5------------------------------|
B|--------------------------------|-------5^8---5-8b-------8^5-5------------------------|
G|-7b---------7b-7bp5-----5-5-----|---------------------------7-7br5--------------------|
D|----------------------------7---|---------------------------------7-555---------------|
A|--------------------------------|---------------------------------------7-6-5-3-5br-3-|
E|--------------------------------|-----------------------------------------------------|
Bend the 15 to a 16.5 not 17
e|--------------------------|----12--12--12------------------|
B|--------------------------|----15b-15b-15br---15^13--------|
G|-------5---5-7br-p5--p0---|--------------------------------|
D|---5-7---7----------------|--------------------------------|
A|--------------------------|--------------------------------|
E|--------------------------|--------------------------------|

e|-------20^17---------17--20-20^17--------|--19--20—19-19^20^19-----------|
B|---20b-------20b--20—20b----------20b-20-|----------------------17-------|
G|-----------------------------------------|-------------------------------|
D|-----------------------------------------|-------------------------------|
A|-----------------------------------------|-------------------------------|
E|-----------------------------------------|-------------------------------|

e|-19--20-20-19^20^19-----19--20-20-19^20^19----|----17--17-17--------------------------|
B|--------------------17---------------------17-|-20b—20b---20b--20-17--17--------------|
G|----------------------------------------------|---------------------19—19br-17—17-1917|
D|----------------------------------------------|-------------------------------19------|
A|----------------------------------------------|---------------------------------------|
E|----------------------------------------------|---------------------------------------|
(Play three times)
e|----------------------------------------|
B|----------------------------------------|
G|-19-17-19-17-19-17----------------------|
D|-------------------19-17----------------|
A|-------------------------19-18-17-------|
E|----------------------------------20-17-|


The guitar starts to pick up speed here
e|-----------------------17^19^17^20^17^19^17^20-20b-20b-20b--17----19----|
B|-------------------20b-----------------------------------20-------------|
G|---19-17-19-17-19-------------------------------------------------------|
D|---19-17-19-17-19-------------------------------------------------------|
A|------------------------------------------------------------------------|
E|------------------------------------------------------------------------|

e|--19^20^19^20^19^20^19^20^19^20^19^20^19^20^19--------------------------|
B|-----------------------------------------------20br---17^20^17----------|
G|----------------------------------------------------19--------191719br--|
D|------------------------------------------------------------------------|
A|------------------------------------------------------------------------|
E|------------------------------------------------------------------------|

Then he jsut keeps playing those notes and the music fades
e|--------------------------------------------------------------|
B|--------------------------------------------------------------|
G|-17--17----------------------------------------17—171919br----|
D|---19--1917--17------------------------17--1719--19-----------|
A|-----------19--191817--17------17--1719--19-------------------|
E|---------------------20--201720--20---------------------------|



************************************

| p Pull-off
| b Bend
| br Bend release

************************************
Song info
Garden
Pearl Jam
2001
  • Rock
  • Alternative Rock
  • Grunge
Similar songs
Kick The Bass - Julien-K
Pennyroyal Tea - Nirvana
Kumbala - Maldita Vecindad
I Can Dream - Skunk Anansie
Wild Flower - The Cult

Hi! Hope you enjoy backing track experience.
If you want to help us in the development of the project, feel free to donate!