I Am Mine - Pearl Jam
00:00 / 00:00
Tabs and lyrics
Tunning: Standard (E A D G B e)
Pearl Jam - I Am Mine
TABBED BY - Jagdeep Singh (jagdeep_1989@hotmail.com)
Standard Tuning (EADGBE)

[Chord Used]
D F/C C G Am F D5 Cadd9
e|--2-----------3-------1---0-----3----|
B|--3---1---1---3---1---1---7-----3----|
G|--2---2---0---0---2---2---7-----0----|
D|--0---3---2---0---2---3---7-----2----|
A|------3---3---2-------3---5-----3----|
E|--------------3-------1--------------|

[Intro]
e|--0----0--0--0---0---0--|--0--0--0--0--0--0--0--0--|
B|--3----3--3/-6/--8/--6/-|--5--5--5--5--6/-5/-1/-3--|
G|--2----2--2/-5/--7/--5/-|--4--4--4--4--5/-4/-2/-2--|
D|--0----0--0--0---0---0--|--0--0--0--0--0--0--0--0--|
A|------------------------|--------------------------|
E|------------------------|--------------------------|

e|--0----0--0--0---0---0--|--0--0--0--0--0--0--0--0--|--0----0--0--0---0---0--|
B|--3----3--3/-6/--8/--6/-|--5--5--5--5/-6/-5/-3/-1--|--3----3--3/-6/--8/--6/-|
G|--2----2--2/-5/--7/--5/-|--4--4--4--4/-5/-4/-2/-2--|--2----2--2/-5/--7/--5/-|
D|--0----0--0--0---0---0--|--0--0--0--0--0--0--0--0--|--0----0--0--0---0---0--|
A|------------------------|--------------------------|------------------------|
E|------------------------|--------------------------|------------------------|

e|--0--0--0--0--0--0--0--0--|--0----0--0--0---0---0--|--0--0--0--0--0--0--0--0--|
B|--5--5--5--5/-6/-5/-3/-1--|--3----3--3/-6/--8/--6/-|--5--5--5--5/-6/-5/-3/-1--|
G|--4--4--4--4/-5/-4/-2/-2--|--2----2--2/-5/--7/--5/-|--4--4--4--4/-5/-4/-2/-2--|
D|--0--0--0--0--0--0--0--0--|--0----0--0--0---0---0--|--0--0--0--0--0--0--0--0--|
A|--------------------------|------------------------|--------------------------|
E|--------------------------|------------------------|--------------------------|

[Verse] D F/C
e|--0-0-0-0-0-0-0-0-0-0-0-0-0----|--2----2--2-------------|
B|--2-2-2-2-2-2-2-2-2-2-2-2-2----|--3----3--3--1---1---1--|
G|--2-2-2-2-2-2-2-2-2-2-2-2-2----|--2----2--2--2---2---2--|
D|--2-2-2-2-2-2-2-2-2-2-2-2-2----|--0----0--0--3---3---3--|
A|--0-0-0-0-0-0-0-0-0-0-0-0-0----|-------------3---3---3--|
E|-------------------------------|------------------------|

C G D F/C C G
e|--------------3--3--3--3--|--2----2--2-------------|---------------3--3--3--3--|
B|--1--1--1--1--3--3--3--3--|--3----3--3--1---1---1--|--1-1-1--1--1--3--3--3--3--|
G|--0--0--0--0--0--0--0--0--|--2----2--2--2---2---2--|--0-0-0--0--0--0--0--0--0--|
D|--2--2--2--2--0--0--0--0--|--0----0--0--3---3---3--|--2-2-2--2--2--0--0--0--0--|
A|--3--3--3--3--2--2--2--2--|-------------3---3---3--|--3-3-3--3--3--2--2--2--2--|
E|--------------3--3--3--3--|------------------------|---------------3--3--3--3--|

D F/C C G F G
e|--2----2--2-------------|--------------3--3--3--3--|--1-----1--1/-3---3---3--|
B|--3----3--3--1---1---1--|--1--1--1--1--3--3--3--3--|--1-----1--1/-3---3---3--|
G|--2----2--2--2---2---2--|--0--0--0--0--0--0--0--0--|--2-----2--2/-4---4---4--|
D|--0----0--0--3---3---3--|--2--2--2--2--0--0--0--0--|--3-----3--3--5---5---5--|
A|-------------3---3---3--|--3--3--3--3--2--2--2--2--|--3-----3--3--5---5---5--|
E|------------------------|--------------3--3--3--3--|--1-----1--1--3---3---3--|

D5
e|--5----------------|
B|--7----------------|
G|--7----------------|
D|--7----------------|
A|--5----------------|
E|--5----------------|

[Chorus]
G Am
e|--3----3--3--0---0---0--|
B|--0----0--0--1---1---1--|
G|--0----0--0--2---2---2--|
D|--0----0--0--2---2---2--|
A|--2----2--2--0---0---0--|
E|--3----3--3-------------|

D G Am D
e|--2--2--2--2--3--2--3--2--|--3----3--3--0---0---0--|--2--2--2--2--3--2--3--2--|
B|--3--3--3--3--3--3--3--3--|--0----0--0--1---1---1--|--3--3--3--3--3--3--3--3--|
G|--2--2--2--2--2--2--2--2--|--0----0--0--2---2---2--|--2--2--2--2--2--2--2--2--|
D|--0--0--0--0--0--0--0--0--|--0----0--0--2---2---2--|--0--0--0--0--0--0--0--0--|
A|--------------------------|--2----2--2--0---0---0--|--------------------------|
E|--------------------------|--3----3--3-------------|--------------------------|

G Am D C
e|--3----3--3--0---0---0--|--2--2--2--2--3--2--3--2--|------------------------|
B|--0----0--0--1---1---1--|--3--3--3--3--3--3--3--3--|--1----1---1---1--------|
G|--0----0--0--2---2---2--|--2--2--2--2--2--2--2--2--|--0----0---0---0--------|
D|--0----0--0--2---2---2--|--0--0--0--0--0--0--0--0--|--2----2---2---2--------|
A|--2----2--2--0---0---0--|--------------------------|--3----3---3---3--------|
E|--3----3--3-------------|--------------------------|------------------------|

e|----------------------|
B|--7---7--7-7----------|
G|--7---7--7-7----------|
D|--7---7--7-7----------|
A|--5---5--5-5----------|
E|----------------------|

[Interlude]
e|--0----0--0--0---0---0--|--0--0--0--0--0--0--0--0--|
B|--3----3--3/-6/--8/--6/-|--5--5--5--5--6/-5/-1/-3--|
G|--2----2--2/-5/--7/--5/-|--4--4--4--4--5/-4/-2/-2--|
D|--0----0--0--0---0---0--|--0--0--0--0--0--0--0--0--|
A|------------------------|--------------------------|
E|------------------------|--------------------------|

e|--0----0--0--0---0---0--|--0--0--0--0--0--0--0--0--|--0----0--0--0---0---0--|
B|--3----3--3/-6/--8/--6/-|--5--5--5--5/-6/-5/-3/-1--|--3----3--3/-6/--8/--6/-|
G|--2----2--2/-5/--7/--5/-|--4--4--4--4/-5/-4/-2/-2--|--2----2--2/-5/--7/--5/-|
D|--0----0--0--0---0---0--|--0--0--0--0--0--0--0--0--|--0----0--0--0---0---0--|
A|------------------------|--------------------------|------------------------|
E|------------------------|--------------------------|------------------------|

e|--0--0--0--0--0--0--0--0--|--0----0--0--0---0---0--|--0--0--0--0--0--0--0--0--|
B|--5--5--5--5/-6/-5/-3/-1--|--3----3--3/-6/--8/--6/-|--5--5--5--5/-6/-5/-3/-1--|
G|--4--4--4--4/-5/-4/-2/-2--|--2----2--2/-5/--7/--5/-|--4--4--4--4/-5/-4/-2/-2--|
D|--0--0--0--0--0--0--0--0--|--0----0--0--0---0---0--|--0--0--0--0--0--0--0--0--|
A|--------------------------|------------------------|--------------------------|
E|--------------------------|------------------------|--------------------------|

[Verse] D F/C
e|--0-0-0-0-0-0-0-0-0-0-0-0-0----|--2----2--2-------------|
B|--2-2-2-2-2-2-2-2-2-2-2-2-2----|--3----3--3--1---1---1--|
G|--2-2-2-2-2-2-2-2-2-2-2-2-2----|--2----2--2--2---2---2--|
D|--2-2-2-2-2-2-2-2-2-2-2-2-2----|--0----0--0--3---3---3--|
A|--0-0-0-0-0-0-0-0-0-0-0-0-0----|-------------3---3---3--|
E|-------------------------------|------------------------|

C G D F/C C G
e|--------------3--3--3--3--|--2----2--2-------------|---------------3--3--3--3--|
B|--1--1--1--1--3--3--3--3--|--3----3--3--1---1---1--|--1-1-1--1--1--3--3--3--3--|
G|--0--0--0--0--0--0--0--0--|--2----2--2--2---2---2--|--0-0-0--0--0--0--0--0--0--|
D|--2--2--2--2--0--0--0--0--|--0----0--0--3---3---3--|--2-2-2--2--2--0--0--0--0--|
A|--3--3--3--3--2--2--2--2--|-------------3---3---3--|--3-3-3--3--3--2--2--2--2--|
E|--------------3--3--3--3--|------------------------|---------------3--3--3--3--|

D F/C C G F G
e|--2----2--2-------------|--------------3--3--3--3--|--1-----1--1/-3---3---3--|
B|--3----3--3--1---1---1--|--1--1--1--1--3--3--3--3--|--1-----1--1/-3---3---3--|
G|--2----2--2--2---2---2--|--0--0--0--0--0--0--0--0--|--2-----2--2/-4---4---4--|
D|--0----0--0--3---3---3--|--2--2--2--2--0--0--0--0--|--3-----3--3--5---5---5--|
A|-------------3---3---3--|--3--3--3--3--2--2--2--2--|--3-----3--3--5---5---5--|
E|------------------------|--------------3--3--3--3--|--1-----1--1--3---3---3--|

D5
e|--5----------------|
B|--7----------------|
G|--7----------------|
D|--7----------------|
A|--5----------------|
E|--5----------------|

[Chorus]
G Am
e|--3----3--3--0---0---0--|
B|--0----0--0--1---1---1--|
G|--0----0--0--2---2---2--|
D|--0----0--0--2---2---2--|
A|--2----2--2--0---0---0--|
E|--3----3--3-------------|

D G Am D
e|--2--2--2--2--3--2--3--2--|--3----3--3--0---0---0--|--2--2--2--2--3--2--3--2--|
B|--3--3--3--3--3--3--3--3--|--0----0--0--1---1---1--|--3--3--3--3--3--3--3--3--|
G|--2--2--2--2--2--2--2--2--|--0----0--0--2---2---2--|--2--2--2--2--2--2--2--2--|
D|--0--0--0--0--0--0--0--0--|--0----0--0--2---2---2--|--0--0--0--0--0--0--0--0--|
A|--------------------------|--2----2--2--0---0---0--|--------------------------|
E|--------------------------|--3----3--3-------------|--------------------------|

G Am D C
e|--3----3--3--0---0---0--|--2--2--2--2--3--2--3--2--|------------------------|
B|--0----0--0--1---1---1--|--3--3--3--3--3--3--3--3--|--1----1---1---1--------|
G|--0----0--0--2---2---2--|--2--2--2--2--2--2--2--2--|--0----0---0---0--------|
D|--0----0--0--2---2---2--|--0--0--0--0--0--0--0--0--|--2----2---2---2--------|
A|--2----2--2--0---0---0--|--------------------------|--3----3---3---3--------|
E|--3----3--3-------------|--------------------------|------------------------|

e|----------------------|
B|--7---7--7-7----------|
G|--7---7--7-7----------|
D|--7---7--7-7----------|
A|--5---5--5-5----------|
E|----------------------|

[Interlude]
e|--0----0--0--0---0---0--|--0--0--0--0--0--0--0--0--|
B|--3----3--3/-6/--8/--6/-|--5--5--5--5--6/-5/-1/-3--|
G|--2----2--2/-5/--7/--5/-|--4--4--4--4--5/-4/-2/-2--|
D|--0----0--0--0---0---0--|--0--0--0--0--0--0--0--0--|
A|------------------------|--------------------------|
E|------------------------|--------------------------|

e|--0----0--0--0---0---0--|--0--0--0--0--0--0--0--0--|--0----0--0--0---0---0--|
B|--3----3--3/-6/--8/--6/-|--5--5--5--5/-6/-5/-3/-1--|--3----3--3/-6/--8/--6/-|
G|--2----2--2/-5/--7/--5/-|--4--4--4--4/-5/-4/-2/-2--|--2----2--2/-5/--7/--5/-|
D|--0----0--0--0---0---0--|--0--0--0--0--0--0--0--0--|--0----0--0--0---0---0--|
A|------------------------|--------------------------|------------------------|
E|------------------------|--------------------------|------------------------|

e|--0--0--0--0--0--0--0--0--|--0----0--0--0---0---0--|--0--0--0--0--0--0--0--0--|
B|--5--5--5--5/-6/-5/-3/-1--|--3----3--3/-6/--8/--6/-|--5--5--5--5/-6/-5/-3/-1--|
G|--4--4--4--4/-5/-4/-2/-2--|--2----2--2/-5/--7/--5/-|--4--4--4--4/-5/-4/-2/-2--|
D|--0--0--0--0--0--0--0--0--|--0----0--0--0---0---0--|--0--0--0--0--0--0--0--0--|
A|--------------------------|------------------------|--------------------------|
E|--------------------------|------------------------|--------------------------|

[Chorus] x2
G Am
e|--3----3--3--0---0---0--|
B|--0----0--0--1---1---1--|
G|--0----0--0--2---2---2--|
D|--0----0--0--2---2---2--|
A|--2----2--2--0---0---0--|
E|--3----3--3-------------|

D G Am D
e|--2--2--2--2--3--2--3--2--|--3----3--3--0---0---0--|--2--2--2--2--3--2--3--2--|
B|--3--3--3--3--3--3--3--3--|--0----0--0--1---1---1--|--3--3--3--3--3--3--3--3--|
G|--2--2--2--2--2--2--2--2--|--0----0--0--2---2---2--|--2--2--2--2--2--2--2--2--|
D|--0--0--0--0--0--0--0--0--|--0----0--0--2---2---2--|--0--0--0--0--0--0--0--0--|
A|--------------------------|--2----2--2--0---0---0--|--------------------------|
E|--------------------------|--3----3--3-------------|--------------------------|

G Am D C
e|--3----3--3--0---0---0--|--2--2--2--2--3--2--3--2--|------------------------|
B|--0----0--0--1---1---1--|--3--3--3--3--3--3--3--3--|--1----1---1---1--------|
G|--0----0--0--2---2---2--|--2--2--2--2--2--2--2--2--|--0----0---0---0--------|
D|--0----0--0--2---2---2--|--0--0--0--0--0--0--0--0--|--2----2---2---2--------|
A|--2----2--2--0---0---0--|--------------------------|--3----3---3---3--------|
E|--3----3--3-------------|--------------------------|------------------------|

e|----------------------|
B|--7---7--7-7----------|
G|--7---7--7-7----------|
D|--7---7--7-7----------|
A|--5---5--5-5----------|
E|----------------------|

[Solo]
e|--15----15----15----15--------------------|----------------------------|
B|-----12----12----12----12/13--12--12--15--|--15----------------15------|
G|------------------------------------------|------------12--14------12--|
D|------------------------------------------|----------------------------|
A|------------------------------------------|----------------------------|
E|------------------------------------------|----------------------------|

e|------------------15h14---------------|--14--------15--17--19----|
B|------15--13--12--------13-12---------|--------------------------|
G|--14--------------------------14b-14b-|--------------------------|
D|--------------------------------------|--------------------------|
A|--------------------------------------|--------------------------|
E|--------------------------------------|--------------------------|

e|--20-19-17--------------------------------|--------------------------|
B|-----------15h17h15h13/12/10--12--13--15--|--15b---15b---17b---15b---|
G|------------------------------------------|--------------------------|
D|------------------------------------------|--------------------------|
A|------------------------------------------|--------------------------|
E|------------------------------------------|--------------------------|

e|--------------------------|----------------------|--3---3---3---3---3----||
B|--15----13----12----10----|--8----7----8----8----|--3---3---3---3---3----||
G|--------------------------|----------------------|--0---0---0---0---0----|| END !!!
D|--------------------------|----------------------|--0---0---0---0---0----||
A|--------------------------|----------------------|--2---2---2---2---2----||
E|--------------------------|----------------------|--3---3---3---3---3----||

************************************

| / Slide up
| h Hammer-on
| b Bend

************************************
Song info
I Am Mine
Pearl Jam
2001
  • Rock
  • Alternative Rock
  • Grunge
Similar songs
Rape me - Nirvana
I Am A River - Foo Fighters
Someday - Nickelback
Its Been Awhile - Staind
Nada Personal - Soda Stereo

Hi! Hope you enjoy backing track experience.
If you want to help us in the development of the project, feel free to donate!