Why Go - Pearl Jam
00:00 / 00:00
Tabs and lyrics
Tunning: Standard (E A D G B e)
Pearl Jam - Why Go
Album - Ten

Keep in mind Im only writing core of the song, not every detail.

Intro Drums and bass then...

wah on

e-|-------------|-----------------|-----------------|-----------------|--|
B-|-------------|-----------------|-----------------|--19--19-19--19--|--|
G-|--9--9-9--9--|--13--13-13--13--|--14--14-14--14--|--19--19-19--19--|--|
D-|--9--9-9--9--|--12--12-12--12--|--12--12-12--12--|--19--19-19--19--|--|
A-|--7--7-7--7--|-----------------|-----------------|--17--17-17--17--|--|
E-|-------------|-----------------|-----------------|-----------------|--|

--|--12xxx-12xxx-12x-12xxx-12xxx-12x-12xxx-12xxx-12x-12xxx-12xxx-12x--|--|
--|--12xxx-12xxx-12x-12xxx-12xxx-12x-12xxx-12xxx-12x-12xxx-12xxx-12x--|--|
--|--12xxx-12xxx-12x-12xxx-12xxx-12x-12xxx-12xxx-12x-12xxx-12xxx-12x--|--|
--|-------------------------------------------------------------------|--|
--|-------------------------------------------------------------------|--|
--|-------------------------------------------------------------------|--|

Verse Wah off

--|-----------------------------------------------|----------|--------|--|
--|-----------------------------------------------|----------|--9--9--|--|
--|------------------------------7----7-7-7-77-7--|--9-9-97--|--7--7--|--|
--|--9-9-9-99-9--7-7-7-77-7--7-9---9--------------|--7-7-77--|--9--9--|--|
--|-----------------------------------------------|----------|--7--7--|--|
--|-----------------------------------------------|----------|--------|--|

Pre Chorus

--|-----------------|-----12^----0-0-0--0-0-0--0-0-0--0-0-0--0--0--0--|--|
--|-----------------|-----12^---171717-151515-121212-101010-12-15-17--|--|
--|-----------------|-----12^-----------------------------------------|--|
--|-----------------|-------------------------------------------------|--|
--|--------------7--|-------------------------------------------------|--|
--|--0-3/7-0-5h7----|--0----------------------------------------------|--|

Chorus

Emin Cbmaj Gmaj Dmaj
Why go home Why go home

Solo

I dont know exactly what hes playing but I'll give the first two opening licks

e-|-------------------------------------------------------------------|--|
B-|--------12-15p12--12h15p12--12h15p12--12h15p12--12h15p12-----------|--|
G-|--14b16---------14--------14--------14--------14--------14--ect.---|--|
D-|-------------------------------------------------------------------|--|
A-|-------------------------------------------------------------------|--|
E-|-------------------------------------------------------------------|--|

--|--15-12-14-12----12-15-12-14-12----12-15-12-14-12----12-15-12-14-12|--|
--|--------------15----------------15----------------15--------etc.---|--|
--|-------------------------------------------------------------------|--|
--|-------------------------------------------------------------------|--|
--|-------------------------------------------------------------------|--|
--|-------------------------------------------------------------------|--|

Any Questions or critism is welcomed
Tunning: Standard (E A D G B e)
Ok, since no one else knows the REAL why go tab on UG, i'll post it, its perfect
i promise = P if you want anymore pj tabs that no one can tab for you message me and i'll do
best = ) enjoy, from Rees


-|-----------|-----------|------------|------------|-----------|-------------|
-|-----------|-----------|------------|------------|-----------|-------------|
-|-----------|-----------|------------|------------|-----------|-------------|
-|-----------|-----------|------------|------------|-----------|-------------|
-|-----------|-----------|------------|------------|-----------|-------------|
-|-----------|-----------|------------|------------|-----------|-------------|
Drums Bass and Drums

-|-------------------|-----------------------------------|--------------------|
-|-------------------|-----------------------------------|--------------------|
-|-9-----------9-----|-13------------13--13------13------|--------------------|
-|-9-----------9-----|-12------------12--12------12------|--------------------|
-|-7-----------7-----|-----------------------------------|--------------------|
-|-------------------|-----------------------------------|--------------------|
G1

-|-------------------|-----------------------------------|--------------------|
-|-------------------|-----------------------------------|--------------------|
-|-9---9---9---9-9-9-|-13-13-13--13-13--13--13-13--13-13-|--------------------|
-|-9---9---9---9-9-9-|-12-12-12--12-12--12--12-12--12-12-|--------------------|
-|-7---7---7---7-7-7-|-----------------------------------|--------------------|
-|-------------------|-----------------------------------|--------------------|
G2 (w/ heavy wah)

-|-------------------------------|------------------------------------|-------|
-|-------------------------------|-19-----------19---19-----19-19-19--|-------|
-|-14--------14--14----------14--|-19-----------19---19-----19-19-19--|-------|
-|-12--------12--12----------12--|-19-----------19---19-----19-19-19--|-------|
-|-------------------------------|------------------------------------|-------|
-|-------------------------------|------------------------------------|-------|
G1

-|-------------------------------|------------------------------------|-------|
-|-------------------------------|-19-19-19-19-19-19-19-19--19----19--|-------|
-|-14-14-14--14--14--14-14--14---|-19-19-19-19-19-19-19-19--19----19--|-------|
-|-12-12-12--12--12--12-12--12---|-19-19-19-19-19-19-19-19--19----19--|-------|
-|-------------------------------|-17-17-17-17-17-17-17-17--17----17--|-------|
-|-------------------------------|------------------------------------|-------|
G2

-|-x--x----------------|-------x----|------------------------------------------|
-|----x--x------------|-------x----|-------------------------------------------|
-|--------x---------x-|-------------|------------------------------------------|
-|-------------------x-|--x---------|------------------------------------------|
-|----------------------|--x---------|-----------------------------------------|
-|----------------------|-------------|----------------------------------------|
G1

-|---12------12--12--12-|-12----------|----------------------------------------|
-|-x-12---x--12--12--12-|-12----------|----------------------------------------|
-|-x-12---x--12--12--12-|-12----------|----------------------------------------|
-|---12------12--12--12-|-12----------|----------------------------------------|
-|----------------------|-------------|----------------------------------------|
-|----------------------|---------7--|-----------------------------------------|
G2

-|----------------------------------|---------------------------------|-------|
-|----------------------------------|---------------------------------|-------|
-|----------------------------------|-----------------------------7---|-------|
-|--9-9---9-9-9-9-9---9---9-9-9-9-9-|-7-7---7-7-7-7-7---7---7-7-9---9-|-------|
-|----------------------------------|---------------------------------|-------|
-|----------------------------------|---------------------------------|-------|
G1 She scratch - es a letter in -

-|----------------------------------|---------------------------------|-------|
-|----------------------------------|---------------------------------|-------|
-|--7-7---7---7-7-7---7---7-7-7-7-7-|---------------------------------|-------|
-|----------------------------------|-9-9---9---9-9-9---9---9-9-9-9-9-|-------|
-|----------------------------------|---------------------------------|-------|
-|----------------------------------|---------------------------------|-------|
G1 -to a wall made of stone maybe

-|----------------------------------|---------------------------------|-------|
-|----------------------------------|---------------------------------|-------|
-|----------------------------------|-----------------------------7---|-------|
-|--9-9---9-9-9-9-9---9---9-9-9-9-9-|-7-7---7-7-7-7-7---7---7-7-9---9-|-------|
-|----------------------------------|---------------------------------|-------|
-|----------------------------------|---------------------------------|-------|
G1 Some day another child

-|----------------------------------|---------------------------------|-------|
-|----------------------------------|---------------------------------|-------|
-|--7-7---7---7-7-7---7---7-7-7-7-7-|---------------------------------|-------|
-|----------------------------------|-9-9---9---9-9-9---9---9-9-9-9-9-|-------|
-|----------------------------------|---------------------------------|-------|
-|----------------------------------|---------------------------------|-------|
G1 Won't feel as alone as

-|----------------------------------|---------------------------------|-------|
-|----------------------------------|---------------------------------|-------|
-|----------------------------------|-----------------------------7---|-------|
-|--9-9---9-9-9-9-9---9---9-9-9-9-9-|-7-7---7-7-7-7-7---7---7-7-9---9-|-------|
-|----------------------------------|---------------------------------|-------|
-|----------------------------------|---------------------------------|-------|
G1 She does it's been two years and count-

-|----------------------------------|---------------------------------|-------|
-|--9---x-x-x-x-9----x----7-9---7---|-9---x-x-x-x-9---x-x-x-x-9---7---|-------|
-|--7---x-x-x-x-7----x----7-7---7---|-7---x-x-x-x-7---x-x-x-x-7---7---|-------|
-|----------------------------------|---------------------------------|-------|
-|----------------------------------|---------------------------------|-------|
-|----------------------------------|---------------------------------|-------|
G2

-|----------------------------------|---------------------------------|-------|
-|----------------------------------|---------------------------------|-------|
-|--7-7---7---7-7-7---7---7-7-7-7-7-|---------------------------------|-------|
-|----------------------------------|-9-9---9---9-9-9---9---9-9-9-9-9-|-------|
-|----------------------------------|---------------------------------|-------|
-|----------------------------------|---------------------------------|-------|
G1 -ing since they put her in this

-|----------------------------------|---------------------------------|-------|
-|--9---x-x-x-7-9----x----7-9---7---|-9---x-x-x-7-9----x----7-9---7---|-------|
-|--7---x-x-x-7-7----x----7-7---7---|-7---x-x-x-7-7----x----7-7---7---|-------|
-|----------------------------------|---------------------------------|-------|
-|----------------------------------|---------------------------------|-------|
-|----------------------------------|---------------------------------|-------|
G2

-|----------------------------------|---------------------------------|-------|
-|----------------------------------|---------------------------------|-------|
-|----------------------------------|-----------------------------7---|-------|
-|--9-9---9-9-9-9-9---9---9-9-9-9-9-|-7-7---7-7-7-7-7---7---7-7-9---9-|-------|
-|----------------------------------|---------------------------------|-------|
-|----------------------------------|---------------------------------|-------|
G1 Place she's been diag - nosed by some stupid

-|----------------------------------|---------------------------------|-------|
-|--9---x-x-x-x-9---x-x-x-x-9---7---|-9---x-x-x-x-9---x-x-x-x-9---7---|-------|
-|--7---x-x-x-x-7---x-x-x-x-7---7---|-7---x-x-x-x-7---x-x-x-x-7---7---|-------|
-|----------------------------------|---------------------------------|-------|
-|----------------------------------|---------------------------------|-------|
-|----------------------------------|---------------------------------|-------|
G2

-|----------------------------------|---------------------------------|-------|
-|----------------------------------|---------------------------------|-------|
-|--7-7---7---7-7-7---7---7-7-7-7-7-|---------------------------------|-------|
-|----------------------------------|-9-9---9---9-9-9---9---9-9-9-9-9-|-------|
-|----------------------------------|---------------------------------|-------|
-|----------------------------------|---------------------------------|-------|
G1 Fuck and mommy agrees yea

-|----------------------------------|---------------------------------|-------|
-|--9-----9-9-9-9-----9---9-9---9---|-9-----9-9-9-9-----9---9-9---9---|-------|
-|--7-----7-7-7-7-----7---7-7---7---|-7-----7-7-7-7-----7---7-7---7---|-------|
-|--9-----9-9-9-9-----9---9-9---9---|-9-----9-9-9-9-----9---9-9---9---|-------|
-|--7-----7-7-7-7-----7---7-7---7---|-7-----7-7-7-7-----7---7-7---7---|-------|
-|----------------------------------|---------------------------------|-------|
G2

-|------------------------|------------------------|-------------------------|
-|------------------------|------------------------|-------------------------|
-|------------------------|------------------------|-------------------------|
-|------------------------|------------------------|-------------------------|
-|----------------------5-|----------------------5-|----------------------5--|
-|-0--0-5/7-0--0--0-5/7---|-0--0-5/7-0--0--0-5/7---|-0--0-5/7-0--0--0-5/7----|
G1 + G2 woh yeah hey yeah

-|--------------------------------|------|-----------|-----------|----------|--|
-|--------------------------------|------|-----------|-----------|----------|--|
-|--------------------------------|----8-|-----------|-----------|----------|--|
-|--------------------------------|------|-----------|-----------|----------|--|
-|------------------------5-------|------|-----------|-----------|----------|--|
-|-0--0-5/7-0--0-0--0-5/7---7-53-|-0----|-----------|-----------|----------|---|
G1 + G2 Why go home why go home why go home

-|----------------------------------|---------------------------------|-------|
-|----------------------------------|---------------------------------|-------|
-|----------------------------------|-----------------------------7---|-------|
-|--9-9---9-9-9-9-9---9---9-9-9-9-9-|-7-7---7-7-7-7-7---7---7-7-9---9-|-------|
-|----------------------------------|---------------------------------|-------|
-|----------------------------------|---------------------------------|-------|
G1 She seems to be strong - er but

-|----------------------------------|---------------------------------|-------|
-|----------------------------------|---------------------------------|-------|
-|--7-7---7---7-7-7---7---7-7-7-7-7-|---------------------------------|-------|
-|----------------------------------|-9-9---9---9-9-9---9---9-9-9-9-9-|-------|
-|----------------------------------|---------------------------------|-------|
-|----------------------------------|---------------------------------|-------|
G1 What they want her to be is

-|----------------------------------|---------------------------------|--------|
-|----------------------------------|-------------------------9-------|--------|
-|----------------------------------|-------------------------7-------|--------|
-|----------------------------------|-9----5-----------------9-------|---------|
-|----------------------------------|-------------7vvvvvv-------------|--------|
-|----------------------------------|---------------------------------|--------|
G2

-|----------------------------------|---------------------------------|-------|
-|----------------------------------|---------------------------------|-------|
-|----------------------------------|-----------------------------7---|-------|
-|--9-9---9-9-9-9-9---9---9-9-9-9-9-|-7-7---7-7-7-7-7---7---7-7-9---9-|-------|
-|----------------------------------|---------------------------------|-------|
-|----------------------------------|---------------------------------|-------|
G1 Weak she could play pre - tend she could join the

-|----------------------------------|---------------------------------|-------|
-|--9---x-x-x-x-9---x-x-x-x-9---7---|-9---x-x-x-x-9---x-x-x-x-9---7---|-------|
-|--7---x-x-x-x-7---x-x-x-x-7---7---|-7---x-x-x-x-7---x-x-x-x-7---7---|-------|
-|----------------------------------|---------------------------------|-------|
-|----------------------------------|---------------------------------|-------|
-|----------------------------------|---------------------------------|-------|
G2

-|----------------------------------|---------------------------------|-------|
-|----------------------------------|---------------------------------|-------|
-|--7-7---7---7-7-7---7---7-7-7-7-7-|---------------------------------|-------|
-|----------------------------------|-9-9---9---9-9-9---9---9-9-9-9-9-|-------|
-|----------------------------------|---------------------------------|-------|
-|----------------------------------|---------------------------------|-------|
G1 Game boy she could be another

-|----------------------------------|---------------------------------|-------|
-|--9---x-x-x-7-9-----9---x-9---7---|-9-----9-9-9-9-----9---9-9---9---|-------|
-|--7---x-x-x-7-7-----7---x-7---7---|-7-----7-7-7-7-----7---7-7---7---|-------|
-|----------------------------------|-9-----9-9-9-9-----9---9-9---9---|-------|
------------------------------------|-7-----7-7-7-7-----7---7-7---7---|-------|
-|----------------------------------|---------------------------------|-------|
G2

-|------------------------|------------------------|-------------------------|
-|------------------------|------------------------|-------------------------|
-|------------------------|------------------------|-------------------------|
-|------------------------|------------------------|-------------------------|
-|----------------------5-|----------------------5-|----------------------5--|
-|-0--0-5/7-0--0--0-5/7---|-0--0-5/7-0--0--0-5/7---|-0--0-5/7-0--0--0-5/7----|
G1+G2 Clone woooh ahh ahh

-|--------------------------------|---------|----------------------------------|
-|--------------------------------|---------|----------------------------------|
-|--------------------------------|-----8---|----------------------------------|
-|--------------------------------|-----9---|----------------------------------|
-|------------------------5-------|-----7---|----------------------------------|
-|-0--0-5/7-0--0-0--0-5/7---7-53-|-0-------|-----------------------------------|
G1+G2 Yeah

-|--0--0--0--0---0---0---0-|--0---0--0---0-----|--0--0--0--0--0--0--0----|----|
-|-17-17-17-17--17--15--12-|-12--12-12--10-----|-12-12-12-12-12-12-12----|----|
-|-------------------------|-------------------|-------------------------|----|
-|-------------------------|-------------------|-------------------------|----|
-|-------------------------|-------------------|-------------------------|----|
-|-------------------------|-------------------|-------------------------|----|

-|-------------------------|-------------------------|------------------------|
-|-------------------------|-------------------------|------------------------|
-|-9--9-9-9--9-9-9-9-9-9-9-|-9--9-9-9--9-9-9-9-9-9-9-|------------------------|
-|-9--9-9-9--9-9-9-9-9-9-9-|-9--9-9-9--9-9-9-9-9-9-9-|------------------------|
-|-7--7-7-7--7-7-7-7-7-7-7-|-7--7-7-7--7-7-7-7-7-7-7-|------------------------|
-|-------------------------|-------------------------|------------------------|
G1+G2 Why go home Why go home

-|-------------------------|-------------------------|------------------------|
-|-------------------------|-------------------------|------------------------|
-|-9--9-9-9--9-9-9-9-9-9-9-|-9--9-9-9--9-9-9-9-9-9-9-|------------------------|
-|-9--9-9-9--9-9-9-9-9-9-9-|-9--9-9-9--9-9-9-9-9-9-9-|------------------------|
-|-7--7-7-7--7-7-7-7-7-7-7-|-7--7-7-7--7-7-7-7-7-7-7-|------------------------|
-|-------------------------|-------------------------|------------------------|
G1+G2 Why go home Why go home what you taught

-|-------------------------|-------------------------|------------------------|
-|-------------------------|-------------------------|------------------------|
-|-9--9-9-9--9-9-9-9-9-9-9-|-9--9-9-9--9-9-9-9-9-9-9-|------------------------|
-|-9--9-9-9--9-9-9-9-9-9-9-|-9--9-9-9--9-9-9-9-9-9-9-|------------------------|
-|-7--7-7-7--7-7-7-7-7-7-7-|-7--7-7-7--7-7-7-7-7-7-7-|------------------------|
-|-------------------------|-------------------------|------------------------|
G1+G2 Me put me here don't come

-|-------------------------|-------------------------|------------------------|
-|-------------------------|-------------------------|------------------------|
-|-9--9-9-9--9-9-9-9-9-9-9-|-------------------------|------------------------|
-|-9--9-9-9--9-9-9-9-9-9-9-|-------------------------|------------------------|
-|-7--7-7-7--7-7-7-7-7-7-7-|-----5-------------------|------------------------|
-|-------------------------|-0-----------------------|------------------------|
G1 Visit mother

-|-------------------------|-------------------------|------------------------|
-|-------------------------|----------------------12-|------------------------|
-|-9--9-9-9--9-9-9-9-9-9-9-|----------------14b16----|------------------------|
-|-9--9-9-9--9-9-9-9-9-9-9-|-------------------------|------------------------|
-|-7--7-7-7--7-7-7-7-7-7-7-|-----5-------------------|------------------------|
-|-------------------------|-0-----------------------|------------------------|
G2

-|-----------------------------------------------------------------|----------|
-|-15p12--12h15p12--12h15p12--12h15p12--12h15p12--12h15p12---12-12-|----------|
-|------14--------14--------14--------14--------14--------14-------|----------|
-|-----------------------------------------------------------------|----------|
-|-----------------------------------------------------------------|----------|
-|-----------------------------------------------------------------|----------|
G2

-|-------------------------------12-14-|--------------------------------------|
-|----12h15p12---12-15b17vvvvvvv-------|--------------------------------------|
-|-14---------14-----------------------|--------------------------------------|
-|-------------------------------------|--------------------------------------|
-|-------------------------------------|--------------------------------------|
-|-------------------------------------|--------------------------------------|
G2

-|-15--12h15p12----12--------12-------------------------------------|---------|
-|--------------15----15b17-----15p12-------------------------------|---------|
-|------------------------------------14-14b16r14p12-14-12----12-12-|---------|
-|---------------------------------------------------------14-------|---------|
-|------------------------------------------------------------------|---------|
-|------------------------------------------------------------------|---------|
G2

-|-------------------------------------|---------------------------------------|
-|-------------------------------------|---------------------------------------|
-|-12b*--------------------------------|---------------------------------------|
-|---------------14-14-------------14-|----------------------------------------|
-|------------------------14-----------|---------------------------------------|
-|-------------------------------------|---------------------------------------|
G2*Bend quarter step

-|----------------------------------------|-------------------|----------------|
-|----------------------------------------|-------------------|----------------|
-|----------------------------------------|-------------------|----------------|
-|-12-12----------------------------------|-------------------|----------------|
-|-------14-12-10-12b14r12b14r12b14r12b14-|-x-x-x12b14--x-x-x-|----------------|
-|----------------------------------------|-------------------|----------------|
G2 w/ wah--hold-- --hold--------------------|

-|-----------------------------|-----------------------17b19vvvv-|------------|
-|-----------------------------|---------------------------------|------------|
-|-----------------------------|-14----12------------------------|------------|
-|-------12-14-12/14vvvv-14vvv-|----14----14-14--14/-------------|------------|
-|-12/14-----------------------|---------------------------------|------------|
-|-----------------------------|---------------------------------|------------|
G2 --hold--

-|-*b19-19-19-19-|-19-19--17--17p15--------|----------------------------------|
-|---------------|---------------------/17-|----------------------------------|
-|---------------|-------------------------|----------------------------------|
-|---------------|-------------------------|----------------------------------|
-|---------------|-------------------------|----------------------------------|
-|---------------|-------------------------|----------------------------------|
G2 *pre-bend on 17th fret

-|-15-------------------------------------------------------|------------------|
-|----17-15h17p15-------------------------------12-15-12-15-|------------------|
-|----------------1514-12-14b*--12h14p12----12-------------|-------------------|
-|----------------------------------------14----------------|------------------|
-|----------------------------------------------------------|------------------|
-|----------------------------------------------------------|------------------|
G2 *bend 1/4

-|-----------12-------15-12h14p12----12h14p15----12-|-------------------------|
-|-15b17vvvv----12-15-------------15----------15----|-------------------------|
-|--------------------------------------------------|-------------------------|
-|--------------------------------------------------|-------------------------|
-|--------------------------------------------------|-------------------------|
-|--------------------------------------------------|-------------------------|
G2

-|-14p12----12-----------12------------------------------------------|--------|
-|-------15----15b17--------15p12------------------------------------|--------|
-|--------------------------------14-14b16r14p12-14--14--12-14--14b*-|--------|
-|-------------------------------------------------------------------|--------|
-|-------------------------------------------------------------------|--------|
-|-------------------------------------------------------------------|--------|
G2 * bend 1/4

-|--------------------x------12-|----------------------------------------------|
-|--------------------x---------|----------------------------------------------|
-|-14-12-------12vvvv------------|---------------------------------------------|
-|-------14-14-------------------|---------------------------------------------|
-|-------------------------------|---------------------------------------------|
-|-------------------------------|---------------------------------------------|
G2

-|-15-12-12-15--12-----15-12-12-15-15-12-12-15-12-12-15-12-12----|------------|
-|------------------------------------------------------------14-|------------|
-|---------------------------------------------------------------|------------|
-|---------------------------------------------------------------|------------|
-|---------------------------------------------------------------|------------|
-|---------------------------------------------------------------|------------|
G2

-|-17b19-17------17b19-------r17-|--------------------------------------------|
-|-------------------------------|--------------------------------------------|
-|-------------------------------|--------------------------------------------|
-|-------------------------------|--------------------------------------------|
-|-------------------------------|--------------------------------------------|
-|-------------------------------|--------------------------------------------|
G2 ohh

-|-------------------------|-------------------------|------------------------|
-|-------------------------|-------------------------|------------------------|
-|-9--9-9-9--9-9-9-9-9-9-9-|-9--9-9-9--9-9-9-9-9-9-9-|------------------------|
-|-9--9-9-9--9-9-9-9-9-9-9-|-9--9-9-9--9-9-9-9-9-9-9-|------------------------|
-|-7--7-7-7--7-7-7-7-7-7-7-|-7--7-7-7--7-7-7-7-7-7-7-|------------------------|
-|-------------------------|-------------------------|------------------------|
G1+G2 Why go home Why go home

-|-------------------------|-------------------------|------------------------|
-|-------------------------|-------------------------|------------------------|
-|-9--9-9-9--9-9-9-9-9-9-9-|-9--9-9-9--9-9-9-9-9-9-9-|------------------------|
-|-9--9-9-9--9-9-9-9-9-9-9-|-9--9-9-9--9-9-9-9-9-9-9-|------------------------|
-|-7--7-7-7--7-7-7-7-7-7-7-|-7--7-7-7--7-7-7-7-7-7-7-|------------------------|
-|-------------------------|-------------------------|------------------------|
G1+G2 Why go home Why go home what you taught

-|-------------------------|-------------------------|------------------------|
-|-------------------------|-------------------------|------------------------|
-|-9--9-9-9--9-9-9-9-9-9-9-|-9--9-9-9--9-9-9-9-9-9-9-|------------------------|
-|-9--9-9-9--9-9-9-9-9-9-9-|-9--9-9-9--9-9-9-9-9-9-9-|------------------------|
-|-7--7-7-7--7-7-7-7-7-7-7-|-7--7-7-7--7-7-7-7-7-7-7-|------------------------|
-|-------------------------|-------------------------|------------------------|
G1+G2 Me put me here don't come

-|-------------------------|--------------------|-----------------------------|
-|-------------------------|--------------------|-----------------------------|
-|-9--9-9-9--9-9-9-9-9-9-9-|-7---7-------7---7--|-----------------------------|
-|-9--9-9-9--9-9-9-9-9-9-9-|-7---7-------7---7--|-----------------------------|
-|-7--7-7-7--7-7-7-7-7-7-7-|-5---5-------5---5--|-----------------------------|
-|-------------------------|--------------------|-----------------------------|
G1+G2 Visit mother mother yea

-|-------------------------|-------------------------|------------------------|
-|-------------------------|-------------------------|------------------------|
-|-9--9-9-9--9-9-9-9-9-9-9-|-9--9-9-9--9-9-9-9-9-9-9-|------------------------|
-|-9--9-9-9--9-9-9-9-9-9-9-|-9--9-9-9--9-9-9-9-9-9-9-|------------------------|
-|-7--7-7-7--7-7-7-7-7-7-7-|-7--7-7-7--7-7-7-7-7-7-7-|------------------------|
-|-------------------------|-------------------------|------------------------|
G1+G2 Why go home Why go home

-|-------------------------|-------------------------|------------------------|
-|-------------------------|-------------------------|------------------------|
-|-9--9-9-9--9-9-9-9-9-9-9-|-9--9-9-9--9-9-9-9-9-9-9-|------------------------|
-|-9--9-9-9--9-9-9-9-9-9-9-|-9--9-9-9--9-9-9-9-9-9-9-|------------------------|
-|-7--7-7-7--7-7-7-7-7-7-7-|-7--7-7-7--7-7-7-7-7-7-7-|------------------------|
-|-------------------------|-------------------------|------------------------|
G1+G2 Why go home Why go home

-|-------------------------|-------------------------|------------------------|
-|-------------------------|-------------------------|------------------------|
-|-9--9-9-9--9-9-9-9-9-9-9-|-9--9-9-9--9-9-9-9-9-9-9-|------------------------|
-|-9--9-9-9--9-9-9-9-9-9-9-|-9--9-9-9--9-9-9-9-9-9-9-|------------------------|
-|-7--7-7-7--7-7-7-7-7-7-7-|-7--7-7-7--7-7-7-7-7-7-7-|------------------------|
-|-------------------------|-------------------------|------------------------|
G1+G2 Why go home Why go home

-|-------------------------|-----------------|-------|-----------||------------|
-|-------------------------|-----------------|-------|-8--------||-------------|
-|-9--9-9-9--9-9-9-9-9-9-9-|-----------------|-------|-7--------||-------------|
-|-9--9-9-9--9-9-9-9-9-9-9-|-----------------|-------|-6--------||-------------|
-|-7--7-7-7--7-7-7-7-7-7-7-|-----5-----------|-------|-7--------||-------------|
-|-------------------------|-0---------------|-------|-0---------||------------|
G1+G2 Why go home Ah
Song info
Why Go
Pearl Jam
0
  • Rock
  • Alternative Rock
  • Grunge
Similar songs
Homme Presse - Noir Désir
Monster - L7
HighDry - Radiohead
The Devil Put Dinosaurs Here - Alice in Chains

Hi! Hope you enjoy backing track experience.
If you want to help us in the development of the project, feel free to donate!