World Wide Suicide - Pearl Jam
00:00 / 00:00
Tabs and lyrics
Tunning: Standard (E A D G B e)
Pearl Jam - World Wide Suicide

Album: Pearl Jam
Instrument: Guitar
Tuning: EBGDAe (Standard)

03/08/06
Tabbed By: alex182
This is my first tab....... hope its ok.... because none of the other versions
of this page is...
Any suggestions or corrections email them to me ( alexing10@hotmail.com )...
and if you wanna use this tab anywhere, go ahead, but keep my name on it...

Intro/Pre-Chorus

A5 F#5 G5 A5 F#5 G5 A5 F#5 G5 C5 D5
e||---------------------------------------------------------|
B||---------------------------------------------------------|
G||-----------------------------------------5-5-5-5-7-7-7-7-|
D||--7-7-x--4-5---7-7-x--4-5---7-7-x--4-5---5-5-5-5-7-7-7-7-|
A||--7-7-x--4-5---7-7-x--4-5---7-7-x--4-5---3-3-3-3-5-5-5-5-|
E||--5-5-x--2-3---5-5-x--2-3---5-5-x--2-3-------------------|


Verse (Let ring the chords)
A
I felt the earth on a Monday
A
It moved beneath my feet
G
In the form of the morning paper
G
Laid out for me to see

----------
|A=577765|
|G=355433|
----------

Chorus

A5 C5 G5 A5 C5 G5 A5 C5 G5 D5
e||------------------------------------------------------|
B||------------------------------------------------------|
G||--------5-----------5-----------5-----7-7-7-7-7-7-7-7-|
D||--7-7-x-5-5---7-7-x-5-5---7-7-x-5-5---7-7-7-7-7-7-7-7-|
A||--7-7-x-3-5---7-7-x-3-5---7-7-x-3-5---5-5-5-5-5-5-5-5-|
E||--5-5-x---3---5-5-x---3---5-5-x---3-------------------|


Solo

e||----------------------------------------------------|
B||----------------------------------------------------|
G||--6h8--8/9-6-4/6/8---6h8-8/9-6-4-6-6-4-4---6--4-4---|
D||----------------------------------------------------|
A||----------------------------------------------------|
E||----------------------------------------------------|


Bridge

e||-----------------------------------|
B||-----------------------------------|
G||-----------------------------------|
D||--9-9-9-9-9-9-9-9-7-7-7-7-7-7-7-7--|
A||--9-9-9-9-9-9-9-9-7-7-7-7-7-7-7-7--|
E||--7-7-7-7-7-7-7-7-5-5-5-5-5-5-5-5--|


End


e||-----|
B||-----|
G||-----|
D||--7--|
A||--7--|
E||--5--|
Tunning: Standard (E A D G B e)
----------------------------------------------------------------------------
World wide suicide - Pearl jam
----------------------------------------------------------------------------
Tabbed by:Faith_dead
Email:

Tuning:Normal tuning

This is my first tab that i've ever placed on the internet, so it's pretty new for me. I
the intro was something like this:
tap the 5th fret with your left hand and let the open snare sound, than hammer on with
right hand(maybe my english is bad but i hope you understand it), listen to the song for
tempo, cause it didn't fit right here.

Intro Gtr 1:

keep repeating this part(repeat 8 times)

e|--(t5)p0h9-(t5)p0h9-(t5)p0h9-(t5)p0h9------------------------------------|
B|-------------------------------------------------------------------------|
G|-------------------------------------------------------------------------|
D|-------------------------------------------------------------------------|
A|-------------------------------------------------------------------------|
E|-------------------------------------------------------------------------|
(p: pull off with pick)
Gtr2
e|-------------------------------------------------------------------------|
B|-------------------------------------------------------------------------|
G|---------------------------------------------------------5-5-5-5-5/7-7---|
D|--7-7-x--4-x-5-x---7-7-7-x--4-x-5-x---7-7-7-x--4-x-5-x---5-5-5-5-5/7-7---|
A|--7-7-x--4-x-5-x---7-7-7-x--4-x-5-x---7-7-7-x--4-x-5-x---3-3-3-3-3/5-5---|
E|--5-5-x--2-x-3-x---5-5-5-x--2-x-3-x---5-5-5-x--2-x-3-x-------------------|

Verse:

I felt the aerth on monday
A
It moved beneath my feet
A
In the form of a morning paper
G
Laid out for me to see
G
(g= 320033)

Pre-chorus:

e|-------------------------------------------------------------------------|
B|-------------------------------------------------------------------------|
G|---------------------------------------------------------5-5-5-5-5/7-7---|
D|--7-7-x--4-x-5-x---7-7-7-x--4-x-5-x---7-7-7-x--4-x-5-x---5-5-5-5-5/7-7---|
A|--7-7-x--4-x-5-x---7-7-7-x--4-x-5-x---7-7-7-x--4-x-5-x---3-3-3-3-3/5-5---|
E|--5-5-x--2-x-3-x---5-5-5-x--2-x-3-x---5-5-5-x--2-x-3-x-------------------|

Chorus:

e|-------------------------------------------------------------------------|
B|-------------------------------------------------------------------------|
G|---------5-x-----------------5-x-----------------5-x----------7-7-7-7-7--|
D|--7-7-x--5-x--4-4-5---7-7-x--5-x--4-4-5---7-7-x--5-x--4-4-5---7-7-7-7-7--|
A|--7-7-x--3-x--4-4-5---7-7-x--3-x--4-4-5---7-7-x--3-x--4-4-5---5-5-5-5-5--|
E|--5-5-x-------2-2-3---5-5-x-------2-2-3---5-5-x-------2-2-3--------------|

e|-------------------------------------------------------------------------|
B|-------------------------------------------------------------------------|
G|--5--------------5-x-----------------5-x-----------------5-x-------------|
D|--5-9-7---7-7-x--5-x--4-4-5---7-7-x--5-x--4-4-5---7-7-x--5-x--4-4-5------|
A|--3-9-7---7-7-x--3-x--4-4-5---7-7-x--3-x--4-4-5---7-7-x--3-x--4-4-5------|
E|----7-5---5-5---------2-2-3---5-5-x-------2-2-3---5-5-x-------2-2-3------|

e|-------------------------------------------------------------------------|
B|-------------------------------------------------------------------------|
G|--7-7-7-7-7-7-7-7-7-7-7-7-7-7-7-7----------------------------------------|
D|--7-7-7-7-7-7-7-7-7-7-7-7-7-7-7-7----------------------------------------|
A|--5-5-5-5-5-5-5-5-5-5-5-5-5-5-5-5----------------------------------------|
E|-------------------------------------------------------------------------|

Verse(repeat 1st verse)
pre-chorus(" " ")
chorus(" " ")

Bridge

e|-------------------------------------------------------------------------|
B|-------------------------------------------------------------------------|
G|--4---4-4-4---2---2-2-2---4---4-4-4---4(r)-------------------------------|
D|--4---4-4-4---2---2-2-2---4---4-4-4---4(r)-------------------------------|
A|--2---2-2-2---0---0-0-0---2---2-2-2---2(r)-------------------------------|
E|-------------------------------------------------------------------------|
(r)=keep repeating
Pre-chorus 2

e|-------------------------------------------------------------------------|
B|-------------------------------------------------------------------------|
G|-------------------------------------------------------------------------|
D|--7-7-7-7-7-7-7-7-7-7-7-7-7-7-7-7-7-7-7-7-7-7-7-7-7-7-7-7-7-7-7-7-7-7-7--|
A|-------------------------------------------------------------------------|
E|-------------------------------------------------------------------------|
Listen to song for tempo

chorus(4 times)
solo(didn't figured out yet)

end

e|-----------|
B|-----------|
G|--5--------|
D|--5--------|
A|--0--------|
E|-----------|
Song info
World Wide Suicide
Pearl Jam
2001
  • Rock
  • Alternative Rock
  • Grunge
Similar songs
Dig - Incubus
All Apologies - Nirvana
Just Like You - Three Days Grace

Hi! Hope you enjoy backing track experience.
If you want to help us in the development of the project, feel free to donate!