Breathe - Pink Floyd
00:00 / 00:00
Tabs and lyrics
Tunning: Standard (E A D G B e)
From: per.olav.bjornoy@bis.as (Per Olav Bjornoy)
Subject:Breathe in the air
Album: Dark side of the moon
Band: Pink Floyd

There are many versions of this on the net, but no one I've
seen so far uses the right chords, so here is my contribution.......

Em/D [0 2 2 0 3 0] or (Alt.2) [0 7 5 7 0 0]
A7 [x 0 2 0 2 0] or (Alt. 2) [5 7 5 6 5 5]
(Use Alt.2 together with Alt.2 Em/D)
C/B [3 3 2 0 0 0] or [X 3 5 4 5 3]
Bm [X 2 4 4 3 2]
F [1 3 3 2 1 1]
G [3 5 5 4 3 3]
Eb [X 6 8 8 8 6]
Em [0 2 2 0 0 0]

Em/D A7
Breathe, breathe in the air
Em/D A7
Don't be afraid to care
Em/D A7
Leave, but don't leave me
Em/D A7
Look around and chose your own ground

C/B
For long you live and high you fly
Bm
And smiles you'll give and tears you'll cry
F
And all you touch and all you see
G F Eb
Is all your life will ever be

Em/D A7
Run, run rabbit run
Em/D A7
Dig that hole, forget the sun
Em/D A7
And when at last the work is done
Em/D A7
Don't sit down, it's time to start another one

C/B
For long you live and high you fly
Bm
But only if you ride the tide
F
And balanced on the biggest wave
G F Eb Em
You race toward an early grave.

**********************************
Continues with "On the run" and "Time"
"Time" ends with the chords
Dm F

Dm [X X 0 2 3 1]
F [1 3 3 2 1 1]

and then directly to.....
**********************************

Em/D A7
Home, home again
Em/D A7
I like to be there when I can
Em/D A7
When I come in cold and tired
Em/D A7
It's good to warm my bones beside the fire

C/B
Far away across the field
Bm
The tolling of the iron bell
F
Calls the faithful to their knees
G F Bm
To hear the softly spoken magic spells.

Continues with "The great gig in the sky"
Tunning: Standard (E A D G B e)
BREATHE
As recorded by Pink Floyd
(From the 1973 Album DARK SIDE OF THE MOON)

Words and Music by Roger Waters, David Gilmour & Rick Wright
Transcribed by www.mikesguitarsite.co.uk

Gtr I (E A D G B E) - 'David Gilmour - Rhythm w/slight dist & phaser'
Gtr II (E A D G B E) - 'David Gilmour - Lap steel arr. for gtr.'
Gtr III (E A D G B E) - 'David Gilmour - Lap steel arr. for gtr.'

Intro
Q=64
4/4
Gtr I
|---------------------|------------------------|
|-!0----(0)---0-(0)---|-------2--(2)---3-(3)-2-|
|-!0----(0)---------0-|-----2------------------|
|-!4----(4)-----------|---2--------------------|
|-!2----(2)-----------|-0------------0---------|
|-!0----(0)-0---------|------------------------|


|----!0--(0)---0-(0)---|-----------------------------|
|----!0--(0)---------0-|-------2-------3---2-(2)-2---|
|----!0--(0)-----------|-----2-----------0-----------|
|----!4--(4)-----------|---2-------2s4---------------|
|----!2--(2)-2---------|-0-------0-------------------|
|-0--------------------|-----------------------------|


|---------------0-(0)--|------------------------|
|-----!0--(0)--------0-|------2---3-----2-(2)-2-|
|-----!0--(0)----------|----2-------2-----------|
|-----!4--(4)----------|--------2-----2---------|
|-----!2--(2)----------|--0---------------------|
|--0----------0--------|------------------------|
|
| Gtr II
|-12-------------------|------------------------|
|-12--------------12s==|=14---------------------|
|-12--------------12s==|=14---------------------|
|----------------------|------------------------|
|----------------------|------------------------|
|----------------------|------------------------|


|----0-------------------|-----------------------|
|------0----------0-(0)--|--------2--(2)-3-(3)-2-|
|--------0--(0)--------0-|------2--------2-(2)---|
|------------------------|----2------------------|
|------------------------|--0--------------------|
|--0------------0--------|-----------------------|
|
|-12---------------------|-----------------------|
|-12----------------12s==|=14--------------------|
|-12----------------12s==|=14--------------------|
|-------------------12s==|=14--------------------|
|------------------------|-----------------------|
|------------------------|-----------------------|


|----0-----------------------|------------------------------------------|
|------0-----------0-(0)-----|----------10------12-(12)------10-(10)--8-|
|--------0--------------0----|-------------0------------0-------------0-|
|----------4-(4)-------------|------/11------11-----------11------------|
|----------------2-----------|---0--------------------------------------|
|--0-------------------------|------------------------------------------|
|
| Gtr III
| <
|-14----------------------10-|-(10)s=12------------(12)---------(12)\---|
|----------------------------|------------------------------------------|
|----------------------------|------------------------------------------|
|----------------------------|------------------------------------------|
|----------------------------|------------------------------------------|
|----------------------------|------------------------------------------|
|
| Gtr II
|-12-------------------------|------------------------------------------|
|-12-----------------12s=====|==14--------------------------------------|
|-12-----------------12s=====|==14--------------------------------------|
|----------------------------|------------------------------------------|
|----------------------------|------------------------------------------|
|----------------------------|------------------------------------------|


|----!0-------------0---|------------------------------------------|
|----!0---------------0-|---------14-------------12-------------10-|
|----!0-----------------|------------0--(0)------------------------|
|-------4--(4)---4------|-----/14------------12-(12)-(12)s11-11----|
|--------------2--------|--0---------------------------------------|
|--0--------------------|------------------------------------------|
|
| <
|-----------------------|------------------------------------------|
|-12---------------12s==|=14-----------(14)\-----------------------|
|-----------------------|------------------------------------------|
|-----------------------|------------------------------------------|
|-----------------------|------------------------------------------|
|-----------------------|------------------------------------------|
|
|-12--------------------|------------------------------------------|
|-12---------------12s==|=14---------------------------------------|
|-12---------------12s==|=14---------------------------------------|
|------------------12s==|=14---------------------------------------|
|-----------------------|------------------------------------------|
|-----------------------|------------------------------------------|


|----!0----------0-(0)-----|-----------------------------|
|----!0----------------0---|-------2---3--(3)----2-(2)---|
|----!0------------------0-|----2----------------------2-|
|-------4--(4)-------------|---------2-------------------|
|--------------------------|--0----------------0---------|
|--0-----------0-----------|-----------------------------|
|
| <
|-14-------14---------10s==|=11s==12-----(12)\-----------|
|--------------------------|-----------------------------|
|--------------------------|-----------------------------|
|--------------------------|-----------------------------|
|--------------------------|-----------------------------|
|--------------------------|-----------------------------|
|
|-12-----------------------|-----------------------------|
|-12---------------12s=====|=14--------------------------|
|-12---------------12s=====|=14--------------------------|
|--------------------------|-----------------------------|
|--------------------------|-----------------------------|
|--------------------------|-----------------------------|


|----!0-----------------------|------------------------------|
|----!0-------------0-(0)-----|-----2---3--(3)-2-------(2)---|
|----!0------------------0----|----------------2-------(2)---|
|-------4-----(4)-------------|-------2----------------------|
|-----------------2-----------|--0---------------------------|
|--0--------------------------|------------------------------|
|
| <
|-----------------------------|------------------------------|
|---------12-(12)----------12s|=14--------(14)---(14)\-------|
|-----------------------------|------------------------------|
|-----------------------------|------------------------------|
|-----------------------------|------------------------------|
|-----------------------------|------------------------------|
|
|-12--------------------------|------------------------------|
|-12------------------12s=====|=14---------------------------|
|-12------------------12s=====|=14---------------------------|
|---------------------12s=====|=14---------------------------|
|-----------------------------|------------------------------|
|-----------------------------|------------------------------|


|-!0----(0)---0-(0)----|-!2----(2)---2-(2)---2-|-----0------(0)---0-(0)-----|
|-!0----(0)---------0--|-!3----(3)---------3---|-----1------(1)-1-------1---|
|-!0----(0)-0-------0--|-!4----(4)-2-----------|-----2------(2)-----------2-|
|-!2----(2)-2----------|-!4----(4)-------------|-----3------(3)-------------|
|-!3----(3)------------|-!2----(2)-------------|-----3------(3)-------------|
|-!3----(3)------------|-!2----(2)-------------|----------------------------|
|
| <
|-12-------------------|-----------------------|----------------------------|
|----------------------|-12--------------------|-12s13s==12-10--------------|
|----------------------|-----------------------|----------------------------|
|----------------------|-----------------------|----------------------------|
|----------------------|-----------------------|----------------------------|
|----------------------|-----------------------|----------------------------|
|
|----------------------|-----------------------|-----5----------------------|
|-12----12-------------|--7--------------------|-----5----------------------|
|-12----12-------------|--7--------------------|-----5----------------------|
|----------------------|-----------------------|----------------------------|
|----------------------|-----------------------|----------------------------|
|----------------------|-----------------------|----------------------------|


Verse
|-------------||--0--------(0)---|---------------------------|
|--3----6--4--||o-0--------(0)-0-|----------3-(3)---2-(2)----|
|--4----5--5--||--0--------(0)-0-|------------------------2--|
|--5----4--4--||--4--------(4)-4-|--------2-------2----------|
|--5----5--6--||o-2--------(2)-2-|-0--(0)--------------------|
|-------------||--0--------(0)---|---------------------------|
|
|-------------||-----------------|---------------------------|
|--8----6--4s=||o=5--------------|---------------------------|
|-------------||-----------------|---------------------------|
|-------------||-----------------|---------------------------|
|-------------||o----------------|---------------------------|
|-------------||-----------------|---------------------------|
|
| Gtrs II, III
|-------------||-----------------|---------------------------|
|-12----------||o----------------|-2----------(2)-2s==14\----|
|-12----------||-------9\--------|-2----------(2)-2s==14\----|
|-12----------||-----------------|---------------------------|
|-------------||o----------------|---------------------------|
|-------------||-----------------|---------------------------|


|----0----------0-(0)----|-------------------------|----!0--------0-(0)---|
|------0-------------0---|--------2-3--(3)-2-(2)---|----!0--------------0-|
|--------0--(0)--------0-|------2---2--(2)-2-(2)-2-|----!0----------------|
|------------------------|----2------------2-(2)---|----!4----------------|
|------------------------|--0----------------------|-------2--(2)---------|
|--0---------------------|-------------------------|--0-------------------|
|
| Gtrs II, III
| ~~ ~~ ~~
|-12---------------------|-------------------------|-12-------12\---------|
|-12--------------12s====|=14---------(14)S========|=12-------12\---------|
|-12--------------12s====|=14---------(14)S========|=12-------------------|
|------------------------|-------------------------|----------------------|
|------------------------|-------------------------|----------------------|
|------------------------|-------------------------|----------------------|


|----------------------------------|
|-------2------3-----2-(2)---------|
|-----2----------2---------2-------|
|---2------2-------2---------------|
|-0--------------------------------|
|----------------------------------|
|
|----------------------------------|
|-2-------(2)s14-------------(14)\-|
|-2-------(2)s14-------------(14)\-|
|----------------------------------|
|----------------------------------|
|----------------------------------|


|----!0--------0-(0)--|---------------------------||
|----!0-------------0-|------2-3--(3)---2-(2)-----||
|----!0---------------|----2---2--(2)---2-(2)-2---||
|----!4---------------|---------------------------||
|-------2--(2)--------|--0------------0-----------||
|--0------------------|---------------------------||
|
| ~~
|-12------------------|---------------------------||
|-12-------------12s==|=14-------/14\-------------||
|-12-------------12s==|=14-------/14\-------------||
|---------------------|---------------------------||
|---------------------|---------------------------||
|---------------------|---------------------------||


Chorus
|--0------(0)-0-|-2----(2)-2-(2)----|-0------(0)-0---|
|--0------(0)-0-|-3----(3)-3-(3)-3--|-1------(1)-1---|
|--0------(0)-0-|-2----(2)-2-(2)-2--|-2------(2)-----|
|--2------(2)---|-4----(4)-------4--|-3------(3)-----|
|--3------(3)---|-2----(2)----------|-3------(3)-----|
|---------------|-------------------|----------------|
|
| ~~ ~~~~~~~~~~~~~~~~~~~~~~
|---------------|-------------------|-5--------------|
|-12------12\---|-7-----------------|-5--------------|
|-12------12\---|-7-----------------|-5--------------|
|---------------|-------------------|----------------|
|---------------|-------------------|----------------|
|---------------|-------------------|----------------|


|--------------||----------|-----*|
|--3----6--4--o||----------|-----*|
|--4----5--5---||-0--------|-----*|
|--3----4--4---||-2--------|-----*|
|--5----5--3--o||-2--------|-----*|
|--------------||-0--------|-----*|
|
|--------------||----------|-----*|
|-12----------o||----------|-----*|
|-12-----------||----------|-----*|
|-12-----------||----------|-----*|
|-------------o||----------|-----*|
|--------------||----------|-----*|


Tablature Legend
----------------
h - hammer-on
p - pull-off
b - bend
pb - pre-bend
r - bend release (if no number after the r, then release immediately)
/\ - slide into or out of (from/to "nowhere")
s - legato slide
S - shift slide
- natural harmonic
[n] - artificial harmonic
n(n) - tapped harmonic
~ - vibrato
tr - trill
T - tap
TP - trem. picking
PM - palm muting
\n/ - tremolo bar dip; n = amount to dip
\n - tremolo bar down
n/ - tremolo bar up
/n\ - tremolo bar inverted dip
= - hold bend; also acts as connecting device for hammers/pulls
<> - volume swell (louder/softer)
x - on rhythm slash represents muted slash
o - on rhythm slash represents single note slash

Misc Legend
-----------
| - bar
|| - double bar
||o - repeat start
o|| - repeat end
*| - double bar (ending)
: - bar (freetime)
$ - Segno
& - Coda
Tempo markers - = BPM(8/16=s8/s16), where s8 = swing 8ths, s16 = swing 16ths


***************************************************************************************
* Generated using Power Tab Editor by Brad Larsen - http://powertab.guitarnetwork.org *
***************************************************************************************
Tunning: Standard (E A D G B e)
Breathe - Pink Floyd (Dark Side of the Moon)

Top tab : Guitar I
Bottom tab : Guitar II or Keybord

(Chorus : chords->Guitar I
Tab->Guitar II or Keybord)


[Intro]

Em A Em A
e|---0---------------------------------0----------0-----------------------------------|
B|----0---------0-----------2---3-2-----0-----------0--------2-----3-----2------------|
G|-----0----------0----------------------0-----------------2---------------2----------|
D|------2-----------------2---------------2--------------2-------2-----2--------------|
A|-------2--------------0------------------2-----------0-------0-----0----------------|
E|-0------0---0-----------------------0-----0---0-------------------------------------|

e|-----------------------------12------------------------------12---------------------|
B|--------------------------14-----12----------------------------14-------------------|
G|-----------------------14---------------------------------14------------------------|
D|------------------------------------------------------------------------------------|
A|------------------------------------------------------------------------------------|
E|--------------------9------------------------------9--------------------------------|

Em A Em A
e|---0----------0----------------------------0----------------------------------------|
B|----0-----------0------2----3------2--------0--------0---------2---3-2--------------|
G|-----0-------------------------------2-------0---------0----------------------------|
D|------2--------------2-----------2------------2--------------2----------------------|
A|-------2-----------0------0----0---------------2-----------0------------------------|
E|-0------0--0-----------------------------0------0--0--------------------------------|

e|--12~-----------------------------------12~-----------------------------------------|
B|-----------12~b14~-------------------------------12~b14~----------------------------|
G|------------------------------------------------------------------------------------|
D|------------------------------------------------------------------------------------|
A|------------------------------------------------------------------------------------|
E|------------------------------------------------------------------------------------|

Em A Em A
e|---0-------------/5----7---5-3--------------0---------------------------------------|
B|----0------0---------------------------------0-----0--------14------12-----10-------|
G|-----0-------0--------------------------------0-----0-----------0------0------------|
D|------2------------5/7---5---------------------2---------/14------12-----11---------|
A|-------2----------------------------------------2-----------------------------------|
E|-0------0---------------------------------0------0----------------------------------|

e|--14~-------------10~b12~-----------------------------------------------------------|
B|-------------------------------------------12~---------12~b14~----------------------|
G|------------------------------------------------------------------------------------|
D|------------------------------------------------------------------------------------|
A|------------------------------------------------------------------------------------|
E|------------------------------------------------------------------------------------|

Em A Em A
e|---0-------0---------------------------0--------------------------------------------|
B|----0--------0-------2-3-2--------------0------0---------2---3-2--------------------|
G|-----0---------------------2-------------0-------0----------------------------------|
D|------2------------2----------------------2------------2----------------------------|
A|-------2---------0-------------------------2---------0------------------------------|
E|-0------0----------------------------0------0---------------------------------------|

e|--14~--------10~b12~----------------------------------------------------------------|
B|------------------------------------17\12~---------12~b14~--------------------------|
G|------------------------------------------------------------------------------------|
D|------------------------------------------------------------------------------------|
A|------------------------------------------------------------------------------------|
E|------------------------------------------------------------------------------------|

Em Bm Em G F Eb Em
e|-----0-------2------0---------------------------------------------------------------|
B|------0-------3------1--------------------------------------------------------------|
G|------------------------------------------------------------------------------------|
D|------------------------------------------------------------------------------------|
A|------------------------------------------------------------------------------------|
E|-0-------2-------0------------------------------------------------------------------|

e|-7~------7~------7~b8-7--5----------------------------------------------------------|
B|-----------------------------8--6---------------------------------------------------|
G|-----------------------------------8/9----------------------------------------------|
D|------------------------------------------------------------------------------------|
A|------------------------------------------------------------------------------------|
E|------------------------------------------------------------------------------------|


[Verse I]

Em A Em A
e|---0-------0---------------------0-------0------------------------------------------|
B|----0-------0-------3--2----------0-------0-------2-3--2----------------------------|
G|-----0-------------------2---------0---------------------2--------------------------|
D|------2----------2------------------2-----------2-----------------------------------|
A|-------2-------0---------------------2--------0-------------------------------------|
E|-0------0----------------------0------0---------------------------------------------|

|Breathe, breathe in the air. Don't be afraid to care.

e|---------------------------------12-------------------------------------------------|
B|----------------------------------------12b14~--------------------------------------|
G|------------------------------------------------------------------------------------|
D|-----------------------------11~/14-------------------------------------------------|
A|------------------------------------------------------------------------------------|
E|--0~--------------------------------------------------------------------------------|


Em A Em A
e|---0-------0-----------------------0-------0----------------------------------------|
B|----0-------0-------2--3---2--------0-------0------2-3-2----------------------------|
G|-----0------------------2----2-------0-------------------2--------------------------|
D|------2----------2-------2------------2----------2----------------------------------|
A|-------2-------0-----------------------2-------0------------------------------------|
E|-0------0------------------------0------0-------------------------------------------|

|Leave, but don't leave me. Look around and choose your own ground.

e|-12~--12-------------------------12~------------------------------------------------|
B|----------12----------2/14-----------12b14~--------------------14\------------------|
G|------------------------------------------------------------------------------------|
D|------------------------------------------------------------------------------------|
A|------------------------------------------------------------------------------------|
E|------------------------------------------------------------------------------------|


[Chorus]

Cmaj7 Bm >Guitar I
e|------------------------------------------------------------------------------------|
B|--12~\-------------------------------\7~--------------------------------------------|
G|------------------------------------------------------------------------------------|
D|------------------------------------------------------------------------------------|
A|------------------------------------------------------------------------------------|
E|------------------------------------------------------------------------------------|
Long you live and high you fly. And smiles you'll give and tears you'll cry

Am G F Eb >Guitar I
e|------------------------------------------------------------------------------------|
B|-----10~-----------------------------12~-----------------6---4------5---------------|
G|------------------------------------------------------------------------------------|
D|------------------------------------------------------------------------------------|
A|------------------------------------------------------------------------------------|
E|------------------------------------------------------------------------------------|
And all you touch and all you see. Is all your life will ever be

Verse II
Em A Em A
e|-----0-------------------------------------------------5----7---5-3-----------------|
B|-------0--------2-3-----2----------0------------------------------------------------|
G|--------------------0-----0----------0------------------5/7---5---------------------|
D|--------------2-------2-------------------------------------------------------------|
A|------------0-----------------------------------------------------------------------|
E|-0-----------------------------0----------------------------------------------------|
|Run, rabbit run. Dig that hole, forget the sun

e|---------------------9~/21~----12~/22~----------------8b9~--------------------------|
B|--5/17\5-17\5-----------------------------------------------------------------------|
G|------------------------------------------------------------------------------------|
D|------------------------------------------------------------------------------------|
A|------------------------------------------------------------------------------------|
E|------------------------------------------------------------------------------------|

Em A Em A
e|---0---------------0-----------------------------0----------------------------------|
B|----0---------------0----------2-3---2-------------0-----------------2--3--2--------|
G|-----0----------------------------0---0--------------------------------------2------|
D|------2-----------------------2----2-------------------------------2----------------|
A|-------2--------------------0------------------------------------0------------------|
E|-0------0-----------------------------------0---------------------------------------|
|And when at last the work is done. Don't sit down, it's time to dig another one

e|---12~--------------------------------------12~-------------------------------------|
B|--------12~b14~--------------------------------------12~b14~------------------------|
G|------------------------------------------------------------------------------------|
D|------------------------------------------------------------------------------------|
A|------------------------------------------------------------------------------------|
E|------------------------------------------------------------------------------------|


[Chorus]

Cmaj Bm Guitar I
e|------------------------------------------------------------------------------------|
B|-12~\-------------------------------\7~---------------------------------------------|
G|------------------------------------------------------------------------------------|
D|------------------------------------------------------------------------------------|
A|------------------------------------------------------------------------------------|
E|------------------------------------------------------------------------------------|
For Long you live and high you fly. But only if you ride the tide

Am G F Eb Em Guitar I
e|------------------------------------------------------------------------------------|
B|--10~--------------------------------12-------------6-------4--------5--------------|
G|------------------------------------------------------------------------------------|
D|------------------------------------------------------------------------------------|
A|------------------------------------------------------------------------------------|
E|------------------------------------------------------------------------------------|
And balanced on the biggest wave. You race towards an early grave


************************************

| b Bend
| / Slide up
| \ Slide down
| ~ Let ring

************************************
Tunning: Standard (E A D G B e)
BREATHE

"Dark Side of the Moon"


Emadd9 A Asus4 A Emadd9
E--0----------|---------------|-------------|--------------|----0--------|
B--0----------|---------0-----|--------2----|------3---2-2-|-----0-------|
G--0----------|------------0--|------2------|------------2-|------0------|
D--4----------|---------------|----2--------|--------------|-------4-----|
A--2----------|---------------|-0-----------|---0----------|-------2-----|
E--0----------|-----0---------|-------------|--------------|-0-----0-----|

A A7sus4 A7 Emadd9
E---------------|-----------|--------------|-12----------|-------------|
B---------0-----|--------2--|------3--2-2--|-12----------|-------12/---|
G------------0--|------2----|-----------2--|-------------|-------12/---|
D---------------|----2------|--------------|-slide gt----|-------------|
A---------------|-0---------|---0----------|-------------|-------------|
E----0----------|-----------|--------------|-------------|-------------|

A Asus4 A Emadd9 A Asus4 A
E------------|--------------|-12---------|------12/---|/14-----|---------|
B-/14--------|--------------|-12---------|------12/---|/14-----|---------|
G-/14--------|--------------|------------|------------|--------|---------|
D------------|--------------|------------|------------|--------|---------|
A------------|--------------|------------|------------|--------|---------|
E------------|--------------|------------|------------|--------|---------|

Emadd9 A Emadd9
E-14----------|---------10/-|/12-------|--------------|----------|-------|
B-12----------|-----12/-----|/14-------|--------------|-12-------|---12/-|
G-12----------|-----12/-----|/14-------|--------------|-12-------|---12/-|
D-------------|-------------|----------|--------------|----------|-------|
A-(2 sl gts)--|-------------|----------|--------------|----------|-------|
E-------------|-------------|----------|--------------|----------|-------|

A Emadd9 A Asus4 A
E-----------|-------------|-14---------|--------10--|-10/-12---|---------|
B-/14-------|-------------|-12---------|-----12/----|/14-------|---------|
G-/14-------|-------------|-12---------|-----12/----|/14-------|---------|
D-----------|-------------|------------|------------|----------|---------|
A-----------|-------------|------------|------------|----------|---------|
E-----------|-------------|------------|------------|----------|---------|

Emadd9 A Asus4 A Cmaj7
E-12---------|-----------|------------|-----------|----------|-----------|
B-12------12-|-------12/-|/14---------|-----------|-12-------|----/13\12-|
G------------|-------12/-|/14---------|-----------|----------|-----------|
D------------|-----------|------------|-----------|----------|-----------|
A------------|-----------|------------|-----------|----------|-----------|
E------------|-----------|------------|-----------|----------|-----------|

Bm7 Fmaj7 G D7#9 D7b9
E-----------|----------|--------------|-----------|----------|-----------|
B-12--------|----------|-12/13\----12-|-10--------|-8--------|-6----4----|
G-----------|----------|--------------|-----------|----------|-----------|
D-----------|----------|--------------|-----------|----------|-----------|
A-----------|----------|--------------|-----------|----------|-----------|
E-----------|----------|--------------|-----------|----------|-----------|

Em7 A Asus4 A Emadd9
E-----------|-------------------|--------------|--------------|-12-------|
B-/5--------|---------5\--------|\2------------|--------/26---|-12-------|
G-----------|-------------------|-2------------|--------/26---|-12-------|
D-----------|-------------------|--------------|--------------|----------|
A-----------|-------------------|--------------|--------------|----------|
E-----------|-------------------|--------------|--------------|----------|
Breathe________ breathe in the air Don't

Em7 A Asus4 A Emadd9
E------------------|-----------|----------|-12-----------|-12\---\7------|
B-------12/----/14-|-14--------|----------|-12-----------|-12\---\7------|
G-------12/----/14-|-14--------|----------|-12-----------|-12\---\7------|
D------------------|-----------|----------|--------------|---------------|
A------------------|-----------|----------|--------------|---------------|
E------------------|-----------|----------|--------------|---------------|
be afraid to care_____ Leave but don't leave

A Asus4 A Emadd9 A Asus4
E-----------|--------------|-12-----------|-------------------|----------|
B-2/----/14-|--------------|-12-----------|------12/---13/----|/14-------|
G-2/----/14-|--------------|-12-----------|------12/---13/----|/14-------|
D-2/----/14-|--------------|--------------|-------------------|----------|
A-----------|--------------|--------------|-------------------|----------|
E-----------|--------------|--------------|-------------------|----------|
me Look around choose your own ground

A Cmaj7
E-----------------|----------------------|-------------------|
B-12/14-----------|-12-------------------|------------12\--7-|
G-12/14-----------|-12-------------------|------------12\--7-|
D-----------------|----------------------|-------------------|
A-----------------|----------------------|-------------------|
E-----------------|----------------------|-------------------|
For long you live and high you fly and

Bm7 Fmaj7
E-----------------------------|--------------------|---------------------|
B-7---------------------------|--------------------|-10------------------|
G-7---------------------------|--------------------|-10------------------|
D-----------------------------|--------------------|-10------------------|
A-----------------------------|--------------------|---------------------|
E-----------------------------|--------------------|---------------------|
smiles you'll give and tears you'll cry All you touch and all

G D7#9 D7b9 Em7
E--------------------|---------------------|-------------------|---------|
B--------------------|-12------------------|-------------------|-12------|
G--------------------|-12------------------|-10------8---------|-12------|
D--------------------|-12------------------|-------------------|---------|
A--------------------|---------------------|-------------------|---------|
E--------------------|---------------------|-------------------|---------|
you see is all your life will ev-er be Run

A A7sus4 A7 Em
E---------------|----------------|--------------|-12--------------/24-|
B-------12-12/--|/14-------------|/(26)---------|-12--------------/24-|
G-------12-12/--|/14-------------|/(26)---------|-12--------------/24-|
D---------------|----------------|--------------|---------------------|
A---------------|----------------|--------------|---------------------|
E---------------|----------------|--------------|---------------------|
rabbit run Dig that hole

A A7sus4 A Em7
E-24------------------|--------------|------------/12-|------------------|
B-24------------------|-12/14--------|-2---------2/12-|-12---------------|
G-24------------------|-12/14--------|-2---------2/12-|-12---------------|
D---------------------|--------------|-2---------2/---|------------------|
A---------------------|--------------|----------------|------------------|
E---------------------|--------------|----------------|------------------|
forget the sun_____ When at last

A A7sus4 A7 Em7
E----------------|------------|-----------------|-12---------------------|
B------12--12/13/|/14---------|-----------------|-12---------------------|
G------12--12/13/|/14---------|-----------------|-12---------------------|
D----------------|------------|-----------------|------------------------|
A----------------|------------|-----------------|------------------------|
E----------------|------------|-----------------|------------------------|
the work is done Don't sit down it's time

A Asus4 A Cmaj7
E----------------|-------------|---------------|------------------------|
B-------12-12/14-|-------------|-5/------------|/12---------------------|
G-------12-12/14-|-------------|-5/------------|/12---------------------|
D----------------|-------------|---------------|------------------------|
A----------------|-------------|---------------|------------------------|
E----------------|-------------|---------------|------------------------|
to dig anoth - er one For long you live and high

Bm7 Fmaj7
E-----------------|----------------|---------7/------|-------------------|
B----------12\--7-|-7--------------|--------7/-------|-------------------|
G----------12\--7-|-7--------------|-----------------|-------------------|
D-----------------|----------------|-----------------|-------------------|
A-----------------|----------------|-----------------|-------------------|
E-----------------|----------------|-----------------|-------------------|
you fly But only if you ride the tide And balanced on the big-

G D7#9 D7b9 Em
E-----------------|-------------------|------------------|--------------||
B-----------------|-12-----------\----|------------------|--------------||
G-----------------|-12-----------\----|-10\------\8-----/|/9------------||
D-----------------|-------------------|------------------|--------------||
A-----------------|-------------------|------------------|--------------||
E-----------------|-------------------|------------------|--------------||
gest wave you race towards an ear-ly grave


Tunning: Standard (E A D G B e)
Transcribed by www.mikesguitarsite.co.uk
Words and Music by Roger Waters, David Gilmour & Rick Wright


Gtr I (E A D G B E) - 'David Gilmour - Rhythm w/slight dist & phaser'
Gtr II, III (E A D G B E) - 'David Gilmour - Lap steel arr. for gtr.'

Verse
Q=64
4/4
Gtr I
H. +S E. Q +E S S +E S S +S E. E. T T Q +E. S +S S E
|-0---------(0)----|---------------------------|-----0----------0-(0)----|
|-0---------(0)-0--|----------3-(3)---2-(2)----|-------0-------------0---|
|-0---------(0)-0--|------------------------2--|---------0--(0)--------0-|
|-4---------(4)-4--|--------2-------2----------|-------------------------|
|-2---------(2)-2--|-0--(0)--------------------|-------------------------|
|-0---------(0)----|---------------------------|--0----------------------|
|
| Gtrs II, III
| ~~~
| H H H +E E Q H. Q
|------------------|---------------------------|-12----------------------|
|------------------|-2----------(2)-2s==14\----|-12---------------12s====|
|-------9\---------|-2----------(2)-2s==14\----|-12---------------12s====|
|------------------|---------------------------|-------------------------|
|------------------|---------------------------|-------------------------|
|------------------|---------------------------|-------------------------|


E S S E. S +E. S +S E. E. S Q +E. S +S E.
|---------------------------|-----!0--------0-(0)----|
|--------2--3--(3)-2-(2)----|-----!0--------------0--|
|------2----2--(2)-2-(2)-2--|-----!0-----------------|
|----2-------------2-(2)----|-----!4-----------------|
|--0------------------------|--------2--(2)----------|
|---------------------------|--0---------------------|
|
| ~~ ~~~
| H +H H H
|---------------------------|-12--------12\----------|
|-14----------(14)S=========|=12--------12\----------|
|-14----------(14)S=========|=12---------------------|
|---------------------------|------------------------|
|---------------------------|------------------------|
|---------------------------|------------------------|


E S S E E S S S S +S E.
|-------------------------------------|
|--------2------3------2-(2)----------|
|------2-----------2---------2--------|
|----2------2--------2----------------|
|-0-----------------------------------|
|-------------------------------------|
|
| Q. +E Q. +E
|-------------------------------------|
|-2--------(2)s14---------------(14)\-|
|-2--------(2)s14---------------(14)\-|
|-------------------------------------|
|-------------------------------------|
|-------------------------------------|


Chorus
E. S Q +E. S +S E. E. S E. S +E S S +S S E H. +E. S
|-----!0--------0-(0)---|-----------------------------||--0-------(0)-0--|
|-----!0-------------0--|-------2--3--(3)---2-(2)-----||--0-------(0)-0--|
|-----!0----------------|-----2----2--(2)---2-(2)-2---||--0-------(0)-0--|
|-----!4----------------|-----------------------------||--2-------(2)----|
|--------2--(2)---------|--0--------------0-----------||--3-------(3)----|
|--0--------------------|-----------------------------||-----------------|
|
| ~~~ ~~~
| H. Q H H H. Q
|-12--------------------|-----------------------------||-----------------|
|-12--------------12s===|=14---------/14\-------------||-12-------12\----|
|-12--------------12s===|=14---------/14\-------------||-12-------12\----|
|-----------------------|-----------------------------||-----------------|
|-----------------------|-----------------------------||-----------------|
|-----------------------|-----------------------------||-----------------|


H +E. S +S S E H. +S S E H Q Q W
|-2----(2)-2-(2)-----|-0-------(0)-0---|-------------||-2----*|
|-3----(3)-3-(3)-3---|-1-------(1)-1---|--3----6--4--||-3----*|
|-2----(2)-2-(2)-2---|-2-------(2)-----|--4----5--5--||-4----*|
|-4----(4)-------4---|-3-------(3)-----|--3----4--4--||-4----*|
|-2----(2)-----------|-3-------(3)-----|--5----5--3--||-2----*|
|--------------------|-----------------|-------------||------*|
|
| ~~~~~~~~~~~~~~~~~~~~~~~~
| W W H H W
|--------------------|-5---------------|-------------||------*|
|-7------------------|-5---------------|-12----------||------*|
|-7------------------|-5---------------|-12----------||------*|
|--------------------|-----------------|-12----------||------*|
|--------------------|-----------------|-------------||------*|
|--------------------|-----------------|-------------||------*|
Tunning: Standard (E A D G B e)
Pink Floyd - Breathe (Reprise) -ACOUSTIC VERSION-

NOTE:
The reprise is an extend of the original Breathe, so the
chords Em, A and Bm can be used instead of Em9, A7 and Bm7 respectively.
Listen to the song to catch the rhythm. You can find this acoustic version
on "The Making Dark Side of the Moon" DVD (released 2003) or simply searching
YouTube.
If you have any doubts, write to juanit_88@hotmail.com

Em9 A7 FILL 1
Home,home again
Em9 A7 FILL 2
I like to be there when I can
Em9 A7 FILL 3
When I come in cold and tired
Em9 A7 FILL 2
It's good to warm my bones beside the fire


Cmaj7/G
Far away across the field
Bm7
The tolling of the iron bell
Fmaj7/C
Calls the faithful to their knees
G6/D D7#9 D7b9 (5b) Bm7
To hear the softly spoken magic spells.


FILL 1

e-----------------------------|
B------2------1/3--3-----2----|
G----0---0----0---------------|
D--2----------2/4-----2-------|
A--0--------------------------|
E-----------------------------|

FILL 2


e-----------------------------|
B-----2------2h3---2----------|
G---0---0------------0--------|
D-2-------2------------2------|
A-0---------------------------|
E-----------------------------|

FILL 3

e-0------|-0-|-----0----0------|
B-2/14---|-14|-----12---10---0-|
G-0------|-0-|-----0----0----0-|
D-2/14---|-14|-----12---11---0-|
A-0------|-0-|-----0----0------|
E--------|---|-x5--------------|


CHORDS USED

CHORDS USED

________Em9________A7_______Cmaj7/G____Bm7
e--------0---------0----------0----------2-----|
B--------0---------2----------0----------3-----|
G--------0---------0----------0----------2-----|
D--------4---------2----------2----------4-----|
A--------2---------0----------3----------1-----|
E--------0---------0----------3----------x-----|

_______Fmaj7/C____G6/D_______D7#9______D7b9(5b)
e--------0---------0----------0----------4-----|
B--------1---------3----------6----------4-----|
G--------2---------4----------5----------5-----|
D--------3---------5----------4----------4-----|
A--------3---------5----------5----------5-----|
E--------x---------x----------x----------x-----|
Song info
Breathe
Pink Floyd
2001
  • Rock
  • Classic Rock
Alternative tracks
Similar songs
Now Im Here - Queen
Le Sud - Nino Ferrer
Im Going Home - Ten Years After

Hi! Hope you enjoy backing track experience.
If you want to help us in the development of the project, feel free to donate!