Fearless - Pink Floyd
00:00 / 00:00
Tabs and lyrics
Tunning: Open G tuning (D G D G B D)
Pink Floyd
Fearless
From The Album: Meddle

All the other tabs for this song are wrong on this site so i thought i'd submit the
way to play it.
Open G Tuning: (low to high DGDGBD)


G Bb C A
Chords: D|-0-3--5-2---|
B|-0-3--5-2---|
G|-0-3--5-2---|
D|-0-3--5-2---|
G|-0-3--5-2---|
D|-X-X--X-X---|


[Intro]

D|-0----0-0-0-0---------0-0-0-0---------|
B|--0---0-0-0-0-0-1-1-0-0-0-0-0-1-0-----|
G|---0--0-----0---------0-----0-----2-0-| X2
D|----0-0-----0---------0-----0---------|
G|-----00-----0---------0-----0---------|
D|--------------------------------------|

D|-------------------------------------------0-0-0-0---------0-0---|
B|-------------------------------------------0-0-0-0-1-0-----0-0---|
G|---------4-0-0-5-0-0-7-0-0-9-0-0-11-0-12\0-0-----0-----2-0-0-0---| X3
D|-------------------------------------------0-----0---------0-0---|
G|-0-0-0-0-4-0-0-5-0-0-7-0-0-9-0-0-11-0-12\0-0-----0---------0-0---|
D|-----------------------------------------------------------------|


[Riff 1]

D|-------------------------------------------|
B|-------------------------------------------|
G|---------4-0-0-5-0-0-7-0-0-9-0-0-11-0-12\0-| X1
D|-------------------------------------------|
G|-0-0-0-0-4-0-0-5-0-0-7-0-0-9-0-0-11-0-12\0-|
D|-------------------------------------------|

D|-0-0-5-0-3-3-3-0-0-0-0-0--|
B|-0-0-5-0-3-3-3-0-0-0-0-0--|
G|-0-0-5-0-3-3-3-0-0-0-0-0--| X2
D|-0-0-5-0-3-3-3-0-0-0-0-0--|
G|-0-0-5-0-3-3-3-0-0-0-0-0--|
D|--------------------------|


[Verse 1]

G C G Bb Bb Bb G
You say the hills to steep to climb

G C G Bb Bb Bb G
Climb it

G C G Bb Bb Bb G
You say you'd like to see me try

G C G Bb Bb Bb G
Climbing

A D
You pick the place and i'll choose the time

G C
And i'll climb that hill in my own way

G C
Just wait awhile for the right day

G C
And as I rise above the tree line and the clouds

D C G
I'll look down hear the sounds of the things you said today
Riff 1 x4


[Break] x3

D|-2/5-5-5-5-5-5-5-5-5-5\2-2-2-2-2-2-2-2-2-|
B|-2/5-5-5-5-5-5-5-5-5-5\2-2-2-2-2-2-2-2-2-|
G|-2/5-5-5-5-5-5-5-5-5-5\2-2-2-2-2-2-2-2-2-|
D|-2/5-5-5-5-5-5-5-5-5-5\2-2-2-2-2-2-2-2-2-|
G|-2/5-5-5-5-5-5-5-5-5-5\2-2-2-2-2-2-2-2-2-|
D|-----------------------------------------|

H

[Post Break]

G C G Bb Bb Bb G


[Verse 2]

G C G Bb Bb Bb G
Fearlessly the idiot faced the crowd

G C G Bb Bb Bb G
Smiling

G C G Bb Bb Bb G
Mass arrest the magistrate turns round

G C G Bb Bb Bb G
Frowning

A D
And who's the fool who wears the crown

G C
And go down in your own way

G C
And everyday is the right day

G C
And as you rise above the fear lines in his brow

D C G
You look down hear the sounds of the faces in the crowd
Riff 1 x12 Start fading at about 9.5-10
Ola
Ollaa
Aoh
Aoha
And you'll never walk x2 first time during last quarter of riff 1
Alone
You'll never walk alone

(Cheering)
Liverpool
Liverpool
(Cheering)
Ohaoh
Ohaoh
Ohaoh
Ohaoh
Ohaoh
Ohaoh

All of this cheering is from the fans of Liverpool football club in Liverpool,England
Enjoy



************************************

| / Slide up
| \ Slide down

************************************
Tunning: Standard (E A D G B e)
Tuning: GGDGBB

Chords Used
G A A# C D
B|-0-|-2-|-3-|-5-|-7-|
B|-0-|-2-|-3-|-5-|-7-|
G|-0-|-2-|-3-|-5-|-7-|
D|-0-|-2-|-3-|-5-|-7-|
G|-0-|-2-|-3-|-5-|-7-|
G|-0-|-2-|-3-|-5-|-7-|

There are 4 guitars playing at once most of the time

This tab will just give you the basic structure of the
song you're gonna have to use scales and stuff to simulate
the lead guitars. I think the G Be-Bop scale works.


[Intro]

(basic srtucture)

Stratocaster
B|-0v---------------------------------------------------------12+--|
B|-0v------------------1p0-----------------------------0----x-12+--|
G|-0v----------------------2p0--------------------0-------0-x-12+--|
D|-0v---------------------------0h2-0-----------0----0------x------|
G|-0v----------------------------------/5--------------------------|
G|-0v--------------------------------------/4----------------------|

Acoustic(s)
B|-------------------------------------------------------------------------|
B|-------0--0-0-----0--0-0-----0--0-0-----0--0-0-----0--0-0----0--0-0-0--0-|
G|-------0--0-0-----0--0-0-----0--0-0-----0--0-0-----0--0-0----0--0-0-0--0-|
D|----0--0--0-0--0--0--0-0--0--0--0-0--0--0--0-0--0--0--0-0--0-0--0-0-0--0-|
G|----0----------0----------0----------0----------0----------0-------------|
G|----0----------0----------0----------0----------0----------0-------------|

Stratocaster
B|---------------------------------------------------------------|
B|---------------------------------------------------------------|
G|------------4-----5-----7-----9-----11---12\0------------------|
D|-0-0-0-0-0--x-----x-----x-----x------x----x--------------------|
G|------------4-0-0-5-0-0-7-0-0-9-0-0-11-0-12\0------------------|
G|---------------------------------------------------------------|

Acoustic(s)
B|------------------------------------------------0--------------|
B|-0--0-0-0---------------------------------------0-----0--0-0---|
G|-0--0-0-0---4-----5-----7-----9-----11---12\0---0-----0--0-0---|
D|-0--0-0-0---x-----x-----x-----x------x----x-----0--0--0--0-0---|
G|------------4-0-0-5-0-0-7-0-0-9-0-0-11-0-12\0---0--0-----------|
G|------------------------------------------------0--0-----------|

Acoustic(s)
C G A# A#
B|-----------|
B|-----------|
G|-5-0-3-x-3-|
D|-5-0-3-x-3-|
G|-5-0-3-x-3-|
G|-5-0-3-x-3-|

That's mostly what plays in the intro


[Verse 1]

Every now and then during verses
B|-12+-7+-|
B|-12+-7+-|
G|-12+-7+-|
D|--------|
G|--------|
G|--------|


[Verse]

G C G A# A#
You say the hill's too steep to climb

G C G A# A#
Climb it

G C G A# A#
You say you'd like to see me try

G C G A# A#
Climbing

A D
You pick the place and i'll choose the time

G C
And i'll climb that hill in my own way

G C
Just wait awhile for the right day

G C
And as I rise above the tree line and the clouds

D C G
I'll look down hear the sounds of the things you said today


[Bridge]

Chords played

D C


[Verse 2]

Same Chords as VERSE 1


Fearlessly the idiot faced the crowd

Smiling.

Merciless the magistrate turns round

Frowning.

And whos the fool who wears the crown?

No doubt,

In your own way

And every day is the right day

And as you rise above the fear-lines in his brow

You look down, hear the sound of the faces in the crowd.



All throuought this song the slide guitars and normal guitar are
playing little diddlies. Just use the G Be-Bop scale and you'll probably be okay. The G
scale consists of G A B C D E F F#




*********************************

| / slide up
| \ slide down
| h hammer-on
| p pull-off
| ~ vibrato
| + harmonic
| x Mute note
| v Pickstroke Up
| ^ Pickstroke Down

*********************************
Song info
Fearless
Pink Floyd
2001
  • Rock
  • Prog Rock
Similar songs
Comfortably Numb - Pink Floyd
H - Tool
Brain Damage - Pink Floyd

Hi! Hope you enjoy backing track experience.
If you want to help us in the development of the project, feel free to donate!