Something To Believe In - Poison
00:00 / 00:00
Tabs and lyrics
Tunning: Standard (E A D G B e)
Author/Artist: Poison
Title: Something to Believe In

This is Something to Believe In by Poison.
I wish I could take credit for the transcription, but it is not mine.
I just brought it down to a guitar-friendly octave and put it in tab format.
Enjoy, and God bless!

[Intro]
e|-----2----------7---0---|------------------------|----------7-----0---0----|
B|-0--------------7h9-0h2-|-2-----------------5----|-0--------7h9---0---0h2--|
G|------------------------|-2--------------2-------|-----1-------------------|
D|---2----------2---------|-2-2-2----2-2-2-------2-|---2----------2---2------|
A|------------------------|------------------------|-------------------------|
E|-0----------------------|-0----------------------|-0-----------------------|

e|------------------|------------------|----------|------------------------|--|
B|-2--------------2-|-4----4---2---2---|-4----4---|-2----------------------|--|
G|-2------------2---|-4----4---2---2---|-4----4---|-2----------------------|--|
D|---2-2------2-----|---2----2---2---2-|----2---2-|------------------------|--|
A|------------------|------------------|----------|------------------------|--|
E|-0--------0-------|-0--------0-------|-0--------|-0----------------------|--|

[Pre-verse]
e|-----0-----7----0-|------------------|-------7----------|------------------|
B|-0---0-----7----0-|-2------------5---|-0-----7h9--------|-2----------------|
G|------------------|-2------------2---|-----------9------|-2----------------|
D|---2----------2---|---2---2-2-2----2-|-2-2---------9h11-|-2--------2-------|
A|-----------7------|------------------|-------7----------|------------------|
E|-0------0---------|-0----------------|-0----------------|-0----------------|

e|------------------|----------|-5-------------------|-----------------------|
B|-4----4---2---2---|-4---4----|---------------------|-2---------------------|
G|-4----4---2---2---|-4---4----|-2-------------------|-----------------------|
D|----2---2---2---2-|---2---2--|-2-------------------|------------2h4--------|
A|------------------|----------|---------------------|--------2h4-----2h4----|
E|-0--------0-------|-0--------|---------------------|-----------------------|

[Verse]
e|------0-----------|--------0---------|--------------0---|-------0----------|
B|--0---0-----0---0-|-0--0-0-0------0--|-0---0----0---0---|-0-0-0-0--0-0-0---|
G|--1---1-----1---1-|-2--2---2----2-2--|-1---1----1---1---|-2---2------2-2---|
D|--2-2---2---2---2-|-4--4---4--4---4--|-2---2----2---2---|-4---4------4-4---|
A|--2-----2---------|-4----------------|------------------|------------------|
E|------------------|------------------|------------------|------------------|

e|------0-0---0-----|---0-----0-0---0--|---0--0----0-----0|--------0-----0---|
B|-0--0-0-0---0-0---|-0-0-0---0-0-0-0-0|-0--0---0-0--0-0--|-0----0-0-0-0-0---|
G|-1--1-1-----1-1---|-2---2-------2----|-1------1----1----|-2----2-----2-2---|
D|-2--2-----2-----2-|-4-----4-----4----|--------2---------|-4----4-----4-----|
A|----------2-------|-4----------------|------------------|------------------|
E|------------------|------------------|------------------|------------------|

e|-------------0----|-----0---|-0---------------------------------------------|
B|-0---0---0---0----|-0---0---|-0-2-0-----------------------------------------|
G|-1---1---2---2----|-4---4---|-6---------------------------------------------|
D|-2---2---4---4----|-6---6---|-7---------------------------------------------|
A|------------------|---------|-----------------------------------------------|
E|------------------|---------|-----------------------------------------------|

[Chorus]
e|---0-----0----0---|-0-------0-----0--|-----0--0-0---0--|--0----0-0--0-0-0--|
B|-0-0-0---0-0--0-0-|-0--0---0--0--0-0-|-0-0--0---0-0--0-|-0-0-0-0-0-0-0-0---|
G|-1---1---1-1------|-2-2-------2-2----|-1-1--1--------2-|-2---2--2----2-----|
D|-2-2---2---2------|-4-4--4----4------|-2-2-------------|-4---4--4----------|
A|-----------2------|-4---4------------|-----------------|-4-----------------|
E|------------------|------------------|-----------------|-------------------|

[Interlude] (sometimes I wish to God etc)
e|-----0-------0----|-0-------|-----------------------------------------------|
B|-0---0---0---0----|-0---0---|-0---------------------------------------------|
G|-1---1---2---2----|-4---4---|-6---------------------------------------------|
D|-2-------4--------|-6---3---|-7---------------------------------------------|
A|------------------|---------|-----------------------------------------------|
E|------------------|---------|-----------------------------------------------|

[Solo lead]
e|-------------------------------------|-------------------------------------|
B|-------------------------------------|-------------------------------------|
G|-4--------6----------6----8------9---|-9-8-6-8-6-4-8-6----8-6-4---6---4----|
D|-------------------------------------|--------------------------6---6------|
A|-------------------------------------|-------------------------------------|
E|-------------------------------------|-------------------------------------|

e|-------------------------------------|-17---------17-19-------14----17-----|
B|-------------------21-19-21-19-21-19-|------------------17-------14----19--|
G|-4-------4-----13--------------------|---------------------16--------------|
D|-------------------------------------|-------------------------------------|
A|-------------------------------------|-------------------------------------|
E|-------------------------------------|-------------------------------------|

e|-17-----------16-16-16---17-16-18-16-|-16-17-19-21-19---------------16-14--|
B|-------------------------------------|----------------14-10-12-------------|
G|-------------------------------------|------------------------14-12--------|
D|-------------------------------------|-------------------------------------|
A|-------------------------------------|-------------------------------------|
E|-------------------------------------|-------------------------------------|

e|-12-12p9--------9-------12p9-------9-|-----12p9-------9---------------------|
B|----------12p9-----14--------12p9----|-14--------12p9---12p9-12p9-----------|
G|-------------------------------------|----------------------------11-9------|
D|-------------------------------------|---------------------------------9----|
A|-------------------------------------|-----------------------------------11-|
E|-------------------------------------|--------------------------------------|

e|---------------------------|---------------------------12-16-14-16-14-12-14--|
B|---------------------------|----------------------12-14----------------------|
G|---------------------------|---------------9-11-13---------------------------|
D|---------------------------|-----------9-11----------------------------------|
A|-9-11-9-11-9-7-9-7-----7-9-|-7---7-9-11--------------------------------------|
E|------------------9-7-9----|--7-9--------------------------------------------|

e|----------12-14-14-16-14-12----14----12-|-16-14-16-14-12----14---12-12-17--|
B|----12-14-------------------14----14----|----------------14---14-----------|
G|-13-------------------------------------|----------------------------------|
D|----------------------------------------|----------------------------------|
A|----------------------------------------|----------------------------------|
E|----------------------------------------|----------------------------------|

[Solo] rhythm
e|-0----0--------0--|------------------|-----0----0---0---|----0---0----0----|
B|-0----0--------0--|-0---0---------0--|-0---0----0-------|-0--0-0---0----0--|
G|-4--------4-------|-2---0--0-0----0--|-4----------------|-2--------2-------|
D|-4----------------|-2----------------|-4----------------|-2----------------|
A|------------------|------------------|------------------|------------------|
E|------------------|------------------|------------------|------------------|

e|------0---------0-|-0------0-------0-|-0------0---0---0-|-0----------------|
B|-0--0---0---0---0-|-0------0---0---0-|-0--0-0---0-0-0-0-|-0----------------|
G|-1--------1-1---1-|-2----------2-----|-1--1-----1-1-1---|-2------2---------|
D|-2--------2-2-----|-2----------2-----|-2--2-----2---2---|-2----2-2---------|
A|------------------|-0----------------|------------------|-0----0-----------|
E|------------------|------------------|------------------|------------------|

e|--0---0---0---0---|-0---0---|------0-------0-------------------------------|
B|--0---0---0---0---|-0---0---|----0-------0---------------------------------|
G|--1---1---2---2---|---4-4---|-6--------------6-----------------------------|
D|--2---2---4---4---|---6-6---|-7--------------------------------------------|
A|------------------|---------|----------------------------------------------|
E|------------------|---------|----------------------------------------------|

[Outro] [slowly]
e|-7----------0-----|-0-0---7-9-7----7-|-----------0-0-0--|-0--------------|
B|-0-0-----0--0-2-0-|----------------7-|-----------0-0-0--|-0--------------|
G|------------------|-2-2--------------|------------------|-2--------------|
D|--2-2----2--2-----|------------------|----------2-2-2-2-|----------------|
A|-------2--------2-|-----7-------7----|------------------|----------------|
E|-0--------0-------|-0-0--------------|------------------|-0--------------|
Song info
Something To Believe In
Poison
2001
  • Rock
  • Hard Rock
Similar songs
Shacklers Revenge - Guns N' Roses
New York Groove - Ace Frehley
Wind Of Change - Scorpions
Trampled Under Foot - Led Zeppelin

Hi! Hope you enjoy backing track experience.
If you want to help us in the development of the project, feel free to donate!