Another One Bites The Dust - Queen
00:00 / 00:00
Tabs and lyrics
Tunning: Standard (E A D G B e)
Guitar 1:Fat tube-distortion,plays fills
Guitar 2:The same as guitar 1
Guitar 3:clean funk sound,rythm guitar
Guitar 4:With a little bit of overdrive,a very dry sound,plays the same as
the bass line and is palm muted throughout!


On the record,all guitars are tuned one semitone up to F,live it's played like
here in Em


Often used riff(Git.4)

[Riff 1]

1 + 2 + 3 + 4 + 1 + 2 + 3 + 4 +
e|----------------|----------------|
B|----------------|----------------|
G|----------------|----------------|
D|----------------|----5--7--------|
A|7---7---7------7|7-7---7---------|
E|----------------|----------------|



4/4(Tempo:110)
after four bars only bass and drum:


Gtr.4:Riff 1 five times

[Riff 1]

1 + 2 + 3 + 4 + 1 + 2 + 3 + 4 +
e|----------------|----------------|
B|----------------|----------------|
G|----------------|----------------|
D|----------------|----5--7--------| x5
A|7---7---7------7|7-7---7---------|
E|----------------|----------------|


[Riff 3]
End Riff 3
1 + 2 + 3 + 4 + 1 + 2 + 3 + 4 + 1 + 2 + 3 + 4 + 1 + 2 + 3 + 4 +
e|----------------|----------------|----------------|----------------|
B|----------------|----------------|----------------|----------------|
G|----------------|----------------|----------------|----------------|
D|---------5------|----------------|---------5------|----------------|Riff 1
A|3-3--3-45-------|3-3--3-45-------|3-3--3-45-------|----------------|three times
E|------------3---|------------3---|------------3---|5-5--5-67-------|
. . . . . . . .


[Riff 1]

1 + 2 + 3 + 4 + 1 + 2 + 3 + 4 +
e|----------------|----------------|
B|----------------|----------------|
G|----------------|----------------|
D|----------------|----5--7--------| x3
A|7---7---7------7|7-7---7---------|
E|----------------|----------------|


1 + 2 + 3 + 4 + 1 + 2 + 3 + 4 + 1 + 2 + 3 + 4
e|----------------|----------------|--------------|
gtr.2 B|----------------|----------------|--------------|
G|----------------|----------------|--------------|
D|----------------|----------------|2-------------|
A|----------------|------------5---|2-------------|
E|----------------|------------3---|0-------------|

e|----------------|--------2-------|
gtr.3 B|----------------|--------5-------|
G|----------------|--------2-------|
D|----------------|--------4-------|
A|----------------|----------------|
E|----------------|----------------|

e|----------------|----------------|
gtr.4 B|----------------|----------------|
G|----------------|----------------|RIFF 1 four times
D|-----9987-7-7---|-----------5----|
A|9---------------|9---------------|
E|----------------|----------------|
. . . . .

[Riff 1]

1 + 2 + 3 + 4 + 1 + 2 + 3 + 4 +
e|----------------|----------------|
B|----------------|----------------|
G|----------------|----------------|
D|----------------|----5--7--------| x4
A|7---7---7------7|7-7---7---------|
E|----------------|----------------|


[Riff 2]
end Riff 2

1 + 2 + 3 + 4 + 1 + 2 + 3 + 4 + 1 + 2 + 3 + 4 + 1 + 2 + 3 + 4 +

e|77-x77xx77x7-7-x|7-7-7-78-x5x450x|7xxx7xxx7xx7-7xx|7-7-7-78-x5x45--|
gtr.3 B|88-x88xx88x8-8-x|8-8-8-8x-x5x45-x|8xxx8xxx8xx8-8xx|8-8-8-810x5x45--|
G|99-x99xx99x9-9-x|9-9-9-99-x5x45-x|9xxx9xxx9xx9-9xx|9-9-9-99-x5x45--|
D|99-x99xx99x9-9-x|9-9-9-97-x7x67-x|9xxx9xxx9xx9-9xx|9-9-9-97-x7x67--|
A|77-x77xx77x7-7-x|7-7-7-7--------x|7xxx7xxx7xx7-7xx|7-7-7-----------|
E|----------------|----------------|----------------|----------------|
. . . . . . . . .


[Riff 3]
End Riff 3
1 + 2 + 3 + 4 + 1 + 2 + 3 + 4 + 1 + 2 + 3 + 4 + 1 + 2 + 3 + 4 +
e|----------------|----------------|----------------|----------------|
B|----------------|----------------|----------------|----------------|
G|----------------|----------------|----------------|----------------|
D|---------5------|----------------|---------5------|----------------|
A|3-3--3-45-------|3-3--3-45-------|3-3--3-45-------|----------------|
E|------------3---|------------3---|------------3---|5-5--5-67-------|
. . . . . . . .



[1:22]

1 + 2 + 3 + 4 + 1 + 2 + 3 + 4 +
e|----------------|----------------|
B|----------------|----------------|
G|----------------|----------------|(Guitars 1 + 2!)
D|----------------|----------------|
A|-------------5--|----------------|
E|-------------3--|0---------------|
.

Five bars tacet

1 + 2 + 3 + 4 + 1 + 2 + 3 + 4 + 1 + 2 + 3 + 4 +
e|----------------|----------------|----------------|
B|----------------|----------------|----------------|
gtr.1 G|----------------|----------------|----------------|
D|--------7-7-7---|----------------|2---------------|
A|9-------7-7-7---|------------5---|2---------------|
E|9---------------|------------3---|0---------------|

e|----------------|--------5-------|----------------|
B|----------------|--------5-------|----------------|
gtr.2 G|----------------|--------4-------|----------------|
D|--------7-------|--------4-------|----------------|
A|9----999--------|----------------|----------------|
E|----------9-9---|----------------|----------------|
P.M.------

e|----------------|----------------|----------------|
B|----------------|--------2-------|----------------|
gtr.4 G|----------------|--------2-------|----------------|
D|-----9-87-7-7---|--------2-------|----------------|
A|9---------------|--------0-------|----------------|
E|----------------|----------------|----------------|
. . . .


from 1:40 to 2:28 Interlude

At 2:28 gtr.4 with Riff 1 four times and riff 3(one time)

[Riff 1]

1 + 2 + 3 + 4 + 1 + 2 + 3 + 4 +
e|----------------|----------------|
B|----------------|----------------|
G|----------------|----------------|
D|----------------|----5--7--------|
A|7---7---7------7|7-7---7---------|
E|----------------|----------------|

[Riff 3]
End Riff 3
1 + 2 + 3 + 4 + 1 + 2 + 3 + 4 + 1 + 2 + 3 + 4 + 1 + 2 + 3 + 4 +
e|----------------|----------------|----------------|----------------|
B|----------------|----------------|----------------|----------------|
G|----------------|----------------|----------------|----------------|
D|---------5------|----------------|---------5------|----------------|
A|3-3--3-45-------|3-3--3-45-------|3-3--3-45-------|----------------|
E|------------3---|------------3---|------------3---|5-5--5-67-------|
. . . . . . . .



At 2:37 gtr.3 with Riff 2

[Riff 2]
end Riff 2

1 + 2 + 3 + 4 + 1 + 2 + 3 + 4 + 1 + 2 + 3 + 4 + 1 + 2 + 3 + 4 +

e|77-x77xx77x7-7-x|7-7-7-78-x5x450x|7xxx7xxx7xx7-7xx|7-7-7-78-x5x45--|
gtr.3 B|88-x88xx88x8-8-x|8-8-8-8x-x5x45-x|8xxx8xxx8xx8-8xx|8-8-8-810x5x45--|
G|99-x99xx99x9-9-x|9-9-9-99-x5x45-x|9xxx9xxx9xx9-9xx|9-9-9-99-x5x45--|
D|99-x99xx99x9-9-x|9-9-9-97-x7x67-x|9xxx9xxx9xx9-9xx|9-9-9-97-x7x67--|
A|77-x77xx77x7-7-x|7-7-7-7--------x|7xxx7xxx7xx7-7xx|7-7-7-----------|
E|----------------|----------------|----------------|----------------|
. . . . . . . . .


[2:53]
1 + 2 + 3 + 4 + 1 + 2 + 3 + 4 +
e|----------------|----------------|
B|----------------|----------------|
gtr.1 G|----------------|----------------|
and 2 D|----------------|2---------------|
A|-------------5--|2---------------|
E|-------------3--|0---------------|


Four bars tacet

1 + 2 + 3 + 4 + 1 + 2 + 3 + 4 + 1 + 2 + 3 + 4 + 1 + 2 + 3 + 4 +
e|----------------|----------------|----------------|----------------|
B|----------------|----------------|----------------|----------------|
gtr.1 G|----------------|----------------|----------------|----------------|
D|----------------|----------------|------------5---|----------------|
A|----------------|4-------7-7-7---|------------5---|7---------------|
E|----------------|2-------5-5-5---|----------------|----------------|
.


e|----------------|----------------|----------------|----------------|
B|----------------|----------------|----------------|----------------|
gtr.2 G|----------------|----------------|----------------|----------------|
D|----------------|--------7-7-7---|----------------|2---------------|
A|----------------|-------97-7-7---|------------5---|2---------------|
E|--------------9-|2---------------|------------3---|0---------------|
.

e|77xx77xx77xx77xx-|
B|88xx88xx88xx88xx-|
gtr.3 G|99xx99xx99xx99xx-|
D|99xx99xx99xx99xx-|
A|77xx77xx77xx77xx-|
E|-----------------|

1 + 2 + 3 + 4 + 1 + 2 + 3 + 4 + 1 + 2 + 3 + 4 +
e|7-7-7-75-x5-45--|77xx77xx77x7-7xx|7-7-7-75-55545--|
B|8-8-8-85-x5-45--|88xx88xx88x8-8xx|8-8-8-85-55545--|
(GTR:3) G|9-9-9-95-x5-45--|99xx99xx99x9-9xx|9-9-9-95-55545--|
D|9-9-9-97-x7-67--|99xx99xx99x9-9xx|9-9-9-97-77767--|
A|7-7-7-7---------|77xx77xx77x7-7xx|7-7-7-7---------|
E|----------------|----------------|----------------|

Five bars tacet,then end!



x=muffled strings



************************************

| x Dead note
| . Staccato"
|P.M. Palm mute

************************************
Tunning: Standard (E A D G B e)
Another One Bites The Dust (John Deacon)
Queen

This song is tuned one note higher than standard tuning, so it is
a good idea to use a capo on the first fret, or tune your guitar higher.
Here is the tab with the second option.


[Intro]

(played on the bass really, but here it is for guitar anyway):

e|------------------------------|-------------------------------|
B|------------------------------|-------------------------------|
G|------------------------------|-------------------------------|
D|------------------------------|-------------------------------|
A|------------------------------|-------------------------------|
E|-5-3-0--0--0-----0-0-0--3-0-5-|-5-3-0--0--0-----0-0-0--3-0-5--|


Here's where the guitar comes in:

e|-------------------------|-------------------------|
B|-------------------------|-------------------------|
G|-------------------0---2-|-------------------0---2-|
D|-2--2--2-----2-2-2---2---|-2--2--2-----2-2-2---2---|
A|-------------------------|-------------------------|
E|-------------------------|-------------------------|


00:31

(This part is also for bass, but here it is for the guitar):
e|---------------------------------|------------------------------------|
B|---------------------------------|------------------------------------|
G|---------------------------------|------------------------------------|
D|------------5--------------------|------------5-----------------------|
A|-3-3--3-4-5--------3-3--3-4-5----|-3-3--3-4-5-------0-0--0-0-2----0---|
E|---------------3---------------3-|---------------3------------------0-|


00:52

e|----------------------------------|
B|----------------------------------|
G|----------------------------------|
D|----------------------------------|
A|---------0-0-0--------0---2---0---|
E|-2---2-2--------2-2-2---2-------0-|


Here is where the guitar comes in (sychronized with bass above):

00:56

e|----------------------------------|
B|----------------------------------|
G|---------------------------7------|
D|---------------------------5--5-2-|
A|---------------------------5--5-2-|
E|------------------------------3-0-|


01:06

Em C6
e|-7-x-x-7-x-x-7-7-7-7--7-7-7-7-x----------------|
B|-8-x-x-8-x-x-8-8-8-8--8-8-8-8-x--10-x-10--9/10-|
G|-9-x-x-9-x-x-9-9-9-9--9-9-9-9-x--9--x-9---8/9--|
D|-9-x-x-9-x-x-9-9-9-9--9-9-9-9-x--10-x-10--9/10-|
A|-----------------------------------------------|
E|-----------------------------------------------|

(The 9 hit on the D-string for the first chord is optional)


Outro:

(This part is also for bass, but here it is for the guitar):
e|---------------------------------|------------------------------------|
B|---------------------------------|------------------------------------|
G|---------------------------------|------------------------------------|
D|------------5--------------------|------------5-----------------------|
A|-3-3--3-4-5--------3-3--3-4-5----|-3-3--3-4-5-------0-0--0-0-2----0---|
E|---------------3---------------3-|---------------3------------------0-|



************************************

| x Dead note
| / Slide up

************************************
Tunning: Standard (E A D G B e)
-------------------------------------------------------------------------------
Another One Bites The Dust - Queen
-------------------------------------------------------------------------------
Tabbed by:Waleswasp
E-mail:russellscott19@yahoo.co.uk
Email/comment any suggestions or what you think of it :)
My First Tab ever :) posted


Tuning:Standard
Not 100% correct I think because it after all a bass guitar playing the song.

e|---------------------------------------------------------------------------|
B|---------------------------------------------------------------------------|
G|---------------------------------------------------------------------------|
D|---------------------------------------------------------------------------|
A|---------------------------------------------------------------------------|
E|--5-3----0--0--0----0-0-0---3p0-5----5-3--0--0--0---0-0-0---3p0-5----------|
NOTE:PULL OFF ON 3 IS OPTIONAL-Just how I play it.

e|-------------------------------------|
B|-------------------------------------|
G|------------------0-----2------------|
D|-2--2--2---2-2-2-----2---------------| *X5*
A|-------------------------------------|
E|-------------------------------------|

e|---------------------------------------------------------------------------|
B|---------------------------------------------------------------------------|
G|---------------------------------------------------------------------------|
D|-------------5-----------------------------------5-------------------------|
A|-3-3---3-4-5-------3-3---3-4-5-------3-3---3-4-5--------0-0--0-0-2--0------|
E|---------------3---------------3-------------------3------------------3----|

e|-------------------------------------------|
B|-------------------------------------------|
G|-------------------------------------------|
D|-------------------------------------------| X3
A|-------------------------------------------|
E|--0--0--0---0-0-0--3p0-5-------------------|

e|---------------------------------------------|
B|---------------------------------------------|
G|---------------------------------------------|
D|---------------------------------------------|
A|---------0-0-0---------0---2--0--------------|
E|--2--2-2---------2-2-2---2------3------------|

Song info
Another One Bites The Dust
Queen
2001
  • Rock
  • Pop Rock
Alternative tracks
Similar songs
What Do You Got - Bon Jovi
She Looks So Perfect - 5 Seconds Of Summer
Le Brio - Big Soul
Ashes To Ashes - David Bowie

Hi! Hope you enjoy backing track experience.
If you want to help us in the development of the project, feel free to donate!