Bohemian Rhapsody - Queen
00:00 / 00:00
Tabs and lyrics
Tunning: Standard (E A D G B e)
Queen: Bohemian Rhapsody
Freddie Mercury /1975/

2'25" two gtrs arr. for one
e|------------|----------------------------------|----|
B|------------|----------------------------------|----|
G|------------|-8-------5----10------------------|-0/-|
D|------------|-8-------5----10-------------8----|-/0-|
A|------------|-6----5--3-----8----7-6--5---8----|----|
E|-5----4--3--|-----------------------------6----|----|

e|----------------------------------------------------------------------|
B|----------------------------------------------------------------------|
G|-8--------------------5--------------------------6-----------------2--|
D|-8--------------------5--------------------------6-----6-5-4---3---2--|
A|-6----5---3vv---------3----3-1-----8----7-6--5---4-----4-3-2---1---0--|
E|--------------4-3-2-3----------3-1------------------------------------|


[Solo]

e|-------------------------------------------------------------------------|
B|------------------11v---8---11b13vv------13v---15-16-13v---15-16-b18v----|
G|-----10b12__r10p8---------------------(xx)-------------------------------|
D|-8-----------------------------------------------------------------------|
A|-------------------------------------------------------------------------|
E|-------------------------------------------------------------------------|
------ -----
e|----------------15--16--18--b20v-----18--16--15-16-15h16p15----15---------------------------------------|
B|------------18----------------------------------------------18----18-16-15-16-15h16p15----15------------|
G|--------17-----------------------------------------------------------------------------17----17-15-15vv-|
D|---x-17-------------------------------------------------------------------------------------------------|
A|--------------------------------------------------------------------------------------------------------|
E|--------------------------------------------------------------------------------------------------------|

e|------------------15-16-18-------------------15-16-18--b20v--|
B|---------15-16-18-------------------15-16-18-----------------|
G|--15--17----------------------15-17--------------------------|
D|-------------------------------------------------------------|
A|-------------------------------------------------------------|
E|-------------------------------------------------------------|

e|------------------------------------------------------13------------9-9-9__\2------------|
B|-15-16-13v---15-16-13v---15-16-b18vv-----------------------------------------2---h3p2p0--|
G|----------------------------------------10-12-b13v----------b13v-----------------------2-|
D|-----------------------------------------------------------------------------------------|
A|-----------------------------------------------------------------------------------------|
E|-----------------------------------------------------------------------------------------|

4'7" two gtrs arr. for one
e|-----|------------------------------------------------------------------------------------------|
B|-----|------------------------------------------------------------------------------------------|
G|-----|------------------------------------------------------------------------------------------|
D|-8---|------------------------------------------------------------------------------------------|
A|-8---|-6---------------3-5-6---6-------------3-------6---------------3-5-6---8-------------5----|
E|-6---|-----3---4---6---------------3---4---6---6---------3---4---6---------------5---6---8---8--|

e|-----------------------------------------------------------------------------------------|
B|-----------------------------------------------------------------------------------------|
G|-------8--8----------------------6v-------------8--8--8------------------3---------------|
D|-8-----8--8--8---8---6-8-6------------8----8----8--8--8--6---------------3---3h5--3------|
A|-8-----6--6--8-------------8----------8----8----6--6--6--6---------------1-----------5-3-|
E|-6-----6--6--6---------------9--------6----6-------------4----4--3--1--------------------|

e|-------------------------------------------|
B|-------------------------------------------|
G|------3-----------------------3---------3--|
D|------3--------3-5p3----------3---------3--|
A|------1----4h5-------5p3------1---------1--|
E|-1-----------------------1---------1-------|

e|----------------------------------------------------------------------------------------------|
B|----------------------------------------------------------------------------------------------|
G|----------------------------------------------------------------------------------------------|
D|----------------------------------------------------------------------------------------------|
A|-6---------------3-5-6---6-------------3-------6---------------3-5-6---8---------------5-7-8--|
E|-----3---4---6---------------3---4---6---6---------3---4---6---------------5---6---8----------|

e|----------------------------------------|
B|----------------------------------------|
G|----------------------------------------|
D|-5-7-8---7-8-10---8-10-11---------------|
A|----------------------------------------|
E|---------------------------7----4----6--|

4'51" middle right left
e|-----------------------|-------------------------|-----------------------------------|
B|-----------------------|-------------------------|-----------------------------------|
G|-------------6---6-8-9-|-------------------------|-----------------------------------|
D|-------6-7-9---9-------|-------------------6-8-8-|------------------------------8----|
A|-6-7-9-----------------|---------6-8-9-8-9-------|-----------------8----8-10-11-8----|
E|-----------------------|-8-6-8-9-----------------|-10-8-10-8-10-11---11---------6----|

left right left
e|-------3-6-|---------6-|----------------|
B|-x---4-----|-------6---|--------8-b13v--|
G|---3-------|-7---7-----|-8----8---------|
D|-----------|---8-------|---10-----------|
A|-6---------|-5---------|-4--------------| <- two gtrs arr for one
E|-----------|-----------|----------------|

three gtrs arr. for one 5'9"
e|------------------------| |------------------------------|
B|-8----8----8~9----9-8---| <-right /->|-6---8h9p9-----8-11-10___\3---|
G|-7----8v---7-----10-8---| <-left---/ |-7---8h10p8---10-12-11___\8---|
D|------------------------| |------------------------------|
A|-2----3----2------5-3---| <-two gtrs-->|-1--------6----------5--------|
E|------------------------| |------------------------------|

5'10"
e|-//15-14---15-17-17b18v__\8--8/10\6--/8--8/10\6----|
B|-----------17-19-19b20v__\9--9/11\8---8----11\8----|
G|-//15-14-------------------------------------------|
D|---------------------------------------------------|
A|---------------------------------------------------|
E|---------------------------------------------------|

5'39" right left /finger picked/
e|------------------|-----------------------|
B|-11\9---9\8---8v--|-8\5-------------------|
G|------------------|-------5\3__\2__/10vv--|
D|------------------|-----------------------|
A|------------------|-----------------------|
E|------------------|-----------------------|


[Solo from Live Killers]
~1 : hp

e|-------------------------------------------------------------------|
B|--------------------11----8-8-11b13vvv---13--15-16-13--15-16-b18---|
G|------10b12--r10p8-------------------------------------------------|
D|--8----------------------------------------------------------------|
A|-------------------------------------------------------------------|
E|-------------------------------------------------------------------|
1 1
e|---------15-16-18-b20-----18r16-15-16-15~16----15-------------------|
B|-16--18-------------------------------------18----18-16-15~16-------|
G|----------------------------------------------------------------13--|
D|--------------------------------------------------------------------|
A|--------------------------------------------------------------------|
E|--------------------------------------------------------------------|
1
e|------------------18-18------------------15-16-18----|
B|-15-----------------------------15-16-18-------------|
G|----17-15~17--------------15-17----------------------|
D|-----------------------------------------------------|
A|-----------------------------------------------------|
E|-----------------------------------------------------|

e|----------------15-16-18-20-20---------------------------------13-----|
B|-------15-16-18--------------------15-16-13---15-16-13---15-16--------|
G|-15-17----------------------------------------------------------------|
D|----------------------------------------------------------------------|
A|----------------------------------------------------------------------|
E|----------------------------------------------------------------------|

e|-13-15---13---------------------------------|
B|-------------18r16------14-16-14\2-h3p2p0---|
G|-------------------13---------------------2-|
D|--------------------------------------------|
A|--------------------------------------------|
E|--------------------------------------------|



***************************************************
| ~ vibrato
| b bend
| r release
| p pull-off
| h hammer-on
| / slide up
| \ slide down
***************************************************
Tunning: Standard (E A D G B e)
e|---------------------------------------------------------------------------|
B|---------------------------------------------------------------------------|
G|---------------------------------------------------------------------------|
D|---------------------------------------------------------------------------|
A|---------------------------------------------------------------------------|
E|-5--4-3--------------------------------------------------------------------|

[solo] #1 at 2:36

e|-----------------------------8-10-11-8-10-11-13s10 10-10-13-15-17-20-------|
B|---------------11--8--11b13------------------------------------------------|
G|----10b12r10-8-------------------------------------------------------------|
D|--8------------------------------------------------------------------------|
A|---------------------------------------------------------------------------|
E|---------------------------------------------------------------------------|

e|20-18-15-16-15h16p15----15-------------------------------------------------|
B|---------------------18----18-16-15-16-15h16p15----15----------------------|
G|------------------------------------------------17----17-15----------------|
D|---------------------------------------------------------------------------|
A|---------------------------------------------------------------------------|
E|---------------------------------------------------------------------------|

e|---------------15-16-18-----------------15-16-18-20------------------------|
B|-------15-16-18-----------------15-16-18-----------------------------------|
G|-15-17--------------------15-17--------------------------------------------|
D|---------------------------------------------------------------------------|
A|---------------------------------------------------------------------------|
E|---------------------------------------------------------------------------|

e|-10-11-8--10-11-8--10-11-13s10-----------13--------------------------------|
B|-----------------------------------------------14-14-14s0------------------|
G|--------------------------------10-12-13----13-----------------------------|
D|----------------------------------------------------------7----------------|
A|---------------------------------------------------------------------------|
E|---------------------------------------------------------------------------|


[4:08]

e|---------------------------------------------------------------------------|
B|---------------------------------------------------------------------------|
G|---------------------------------------------------------------------------|
D|---------------------------------------------------------8-----------------|
A|--6-------3-5-6--6-------3----6-------3-5-6-8-------5----8-----------------|
E|----3-4-6----------3-4-6---6----3-4-6---------5-6-8---8--6-----------------|

e|---------------------------------------------------------------------------|
B|---------------------------------------------------------------------------|
G|-8-8-8----------------6----8-8-8-----------3--------------3----------------|
D|-8-8-8-8--8-6-8p6--------8-8-8-8-6--6-4-3--3--3/5-3-------3------3-5p3-----|
A|-6-6-6-8----------8-4----8-6-6-6-6--6-4-3--1--------5-3---1--3/5-------5---|
E|-------6-----------------6-------4--4-2-1---------------1----------------1-|

e|---------------------------------------------------------------------------|
B|---------------------------------------------------------------------------|
G|-3---3---------------------------------------------------------------------|
D|-3---3---------------------------------------------------------------------|
A|-1---1----6-------3-5-6--6-------3----6-------3-5-6-8-------5-7-8----------|
E|---1--------3-4-6----------3-4-6---6----3-4-6---------5-6-8----------------|

e|---------------------------------------------------------------------------|
B|---------------------------------------------------------------------------|
G|-----3-----5---5-6--------------6---6-8-9----------------------------------|
D|-4h6---6h8---8------------6h7-9---9----------------------------------------|
A|--------------------6h7-9--------------------------------------------------|
E|---------------------------------------------------------------------------|

e|----------------------------------------------------6----------------------|
B|------------------------------------------------8-9-6----------------------|
G|---------------------3----7----7----7-8-10-8-10-----7----------------------|
D|-----------3-4-3-4-6--------10---10-----------------8----------------------|
A|-----3-4-6------------------------------------------8----------------------|
E|-4h6------------------------------------------------6----------------------|


[4:56]

e|---------------------------8-----------------------------------------------|
B|-----8-11------8-11------8----8-8h9p8-8-8h9p8-6-8h9p8----------------------|
G|---8---------8---------8---------------------------------------------------|
D|-8---------8--------10-----------------------------------------------------|
A|---------------------------------------------------------------------------|
E|---------------------------------------------------------------------------|

e|--5/10-12-14-15b16-8-8h10\6-8h10\6-----------------------------------------|
B|---------------------------------------------------------------------------|
G|---------------------------------------------------------------------------|
D|---------------------------------------------------------------------------|
A|---------------------------------------------------------------------------|
E|---------------------------------------------------------------------------|


[5:35]

e|---------------------------------------------------------------------------|
B|-11/9-9\8-8---8\5-------6--------------------------------------------------|
G|------------------5-3-2----------------------------------------------------|
D|---------------------------------------------------------------------------|
A|---------------------------------------------------------------------------|
E|---------------------------------------------------------------------------|

********************************

/ Slide UP
\ Slide Down
h Hammer on
p Pull off

********************************
Tunning: Standard (E A D G B e)
#----------------------------------PLEASE NOTE---------------------------------#
#This file is the author's own work and represents their interpretation of the #
#song. You may only use this file for private study, scholarship, or research. #
#------------------------------------------------------------------------------#
#

#----------------------------------PLEASE NOTE---------------------------------#
#This file is the author's own work and represents their interpretation of the #
#song. You may only use this file for private study, scholarship, or research. #
#------------------------------------------------------------------------------##
Bohemian Rhapsody
by Queen
Transcribed by: And Aledort

guitar tacet(chords played by piano)


N.C.
Is this real life Is the just fantasy?

Caught in a landslide, no escape from reality.

Gm
Open your eyes
Bb Eb
Look up to the skies and see
Cm(7) F
I'm just a poor boy, I need no sympathy
B Bb A Bb B Bb A Bb
easy come, eays go, little high, little low (bass enters)
Eb Bb/D C#dim F7/C F7/Eb Bb
Any way the wind blows, doesn't realy matter to me to me.

Bb Gm
Mama just killed a man
Cm Cm7 F
put a gun against his head, pulled my trigger, now he's dead
Bb Gm Cm G+5/B Eb/Bb Adim
Mama life had just begun, but now I've gone and thrown it all away
Eb Bb/D Fm C/E Ab/Eb Ddim Bb Bb6 Bb7
Mama Oooo didn't mean to make you cry, if I'm not back again this time
Eb
tomarrow,
Bb/D Cm Abm Eb Ab/Eb Eb Cdim Bb7sus4b9 Bb
Carry on, carry on as if nothing really matters.
Gm
Too late, my time has come
Cm Cm7 F
Sent shivers down my spine, body's achin' all the time,
Bb Gm
Goodbye everybody, I've got to go,
Cm G+5/B Eb/Bb Adim Abmaj7 Eb/G
Gotta leave you all behind and face the truth.
Eb Bb/D Cm Fm C/E Ab/Eb Ddim Bb Bb6 Bb7
Mama Ooo I don't want to die, I sometimes wish I'd never been born at all.

(guitar solo)

--------------------------------------------------------|
----------------------------11vvvvv---8--11>(12)vvvvvv--|
------------10>(12)==>10>8------------------------------|
--8vvvvvv-----------------------------------------------|
--------------------------------------------------------|
--------------------------------------------------------|


---------------------------------------------------13-15-16-18-18>(20)vvvv----|
--13vvvv--15-16-13vvv--15--16--16>(18)vvvvvv>16-13----------------------------|
------------------------------------------------------------------------------|
------------------------------------------------------------------------------|
------------------------------------------------------------------------------|
------------------------------------------------------------------------------|


---18\16-16--15--18---15>16>15-----15-----------------------------------------|
--------------------------------18-----18--16--15--16--15>16>15----15---------|
----------------------------------------------------------------17----17--15--|
------------------------------------------------------------------------------|
------------------------------------------------------------------------------|
------------------------------------------------------------------------------|


--------------------------15--16--18vvvv(18)\-------------------15-16-18--20vv-|
-------------15--16--18--------------------------------15-16-18----------------|
--15---17---------------------------------------15--17-------------------------|
-------------------------------------------------------------------------------|
-------------------------------------------------------------------------------|
-------------------------------------------------------------------------------|

---------------------------------------------------------------------------|
--15--16--13vvvv---15--16--13vvv--15--16--16>(18)vvvvvv--------------------|
----------------------------------------------------------10--12--12>(13)--|
---------------------------------------------------------------------------|
---------------------------------------------------------------------------|
---------------------------------------------------------------------------|


---13-----------------------------------------------------------|
------------------14---14-14-14-14vvvv-14\7---------------------|
------13vvvvvvv--------------------------------6--6vvvvv--------|
------------------------------------------------------------7---|
----------------------------------------------------------------|
----------------------------------------------------------------|

D/A A Adim A D/A A Adim
I see a little silhouetto of a man
A D/A A D/A A Adim A D/A A
Scarmouch Scarmouch will you do the fandango?
C#/G# G# C#/G# G# C/G E7 A
Thunder bolts and lightening very very frightening me
N.C.
Galileo Galileo Galileo Galileofigaro Mangnifico oh oh oh
B Bb A Bb B Bb A Bb
I'm just a poor boy nobody loves me
Ab/Eb Eb Ebdim Eb Ab/Eb Eb Ebdim Eb
He's just a poor boy, from a poor family
Ab Eb/G F7 Bb
spare him his life from this monstrosity

Ab/Eb Eb Cdim Bb7sus4b9

B Bb A Bb B Bb Bbdim
Easy come easy go will you let me go?
Bb5 Eb Bb5 Eb Bbsus4 Bb Bbsus4 Bb
Bismillah NO, we will not let you go

Let him go
Bb Eb Bb Bbsus4 Bb Bbsus4 Bb
Bismillah we will not let you go Let him go
Bb Eb Bb Bbsus4 Bb Bbsus4 Bb
bismillah we will not let you go Let me go
Bbsus4 Bb Bbsus4 Bb Bbsus4 Bb Bbsus4 Bb
will not let you go let me go will not let you go

let me go oh oh oh oh oh
A5 D Db Gb Bb5 Eb5 Eb Ab Eb N.C. Bb
no no no no no no no Oh mamamia mamamia mamamia let me go
Eb Ab D7 Gm Bb5
Beelzebub has a devil put aside for me for me for me

----------------------------------------------------|
----------------------------------------------------|
----------------------------------------------------|
----------------------------------------------------|
-------------3---5---6---6-----------3-----------6--|
--3---4---6----------------3---4---6----6vvvvvv-----|


--------------------------------------------------------------------|
--------------------------------------------------------------------|
-------------------------------------------------------------8--8---|
---------------------------------------------------8---------8--8---|
-------------3---5---6---8-----------5-------------8---------6--6---|
--3---4---6----------------5---6---8----6----6-----6----------------|


--------------------------------------------------------------------|
--------------------------------------------------------------------|
----------------------------------------6vvvvvvv0-------------------|
--8------8\3/8vvvv---6---8--6--------------------------8--------8\--|
--8-----------------------------8----4-----------------8------------|
--6----------------------------------------------------6---------0--|


-----------------------------------------------------------------------------|
--------------------------4----3-----------------3---------------------------|
--------------------------5----3-----------------3---------------------------|
---3----------------------6----5----3------------3--3>5---3------------------|
---1------1/6--6--6--6>0--6----5----3------------1-----------5>3----------3--|
--------------------------4----3----1-------1>0--------------------1---------|


-----------------------------------------------------------------|
---3---3---------------------------------------------------------|
---3---3---------------------------------------3-------------3---|
---3---3-----------3-----5>3-------------------3-------------3---|
---1---1---3--3/5-------------5\---------------1-------------1---|
-----------------------------------1-----1>0---------1-----------|


---------------------------------------------------------|
---------------------------------------------------------|
---------------------------------------------------------|
---------------------------------------------------------|
--6---------------3---5---6---6-------------3------------|
-----3---4----6-------------------3---4---6----6vvvvvv---|


----------------------------------------------------------------------------|
----------------------------------------------------------------------------|
-----------------------------------------------------------------------5vvv-|
------------------------------------------------------6---8vvv---6--8-------|
--6------------3--5--6---8-------------5---7---8---9------------------------|
-----3---4---6--------------5---6---8---------------------------------------|


-----------------------------------------------------|
-----------------------------------------------------|
------------5----6--------------------6----6--8--9---|
---8vvvvv--------------------6---8--9----9-----------|
---------------------6>7--9--------------------------|
-----------------------------------------------------|


----------------------------------------------|
----------------------------------------------|
-------------------------------------3vvvvv---|
------------------3--4--4>3---4---6-----------|
-------3---4---6------------------------------|
---4>6----------------------------------------|


w/ harmonizer(8va basso)

----------------------------------------------|
---------------------------------------8---9--|
----------7-------7---8---10---8---10---------|
--8---10-----10-------------------------------|
----------------------------------------------|
----------------------------------------------|


hamonizer out. guitar tacet. piano fill.


guitar

-----------------------------------------------------------------|
--------8----11vvvvvvvvvvvv-------------11-----------8----13\9---|
-----8----------------------------7--10------------8-------------|
--8----------------------------8----------------10---------------|
-----------------------------------------------------------------|
-----------------------------------------------------------------|


--------------------------------------------------------------------|
---8---8---8-----9--8------6-----8>9---8------10>11---10\3--3vvvv---|
---7---8---7----10--8------7-----8>10--8------10>12---11\7--7vvvv---|
--------------------------------------------------------------------|
--------------------------------------------------------------------|
--------------------------------------------------------------------|


Cm Gm Cm Gm
Nothing really matters, anyone can see
Cm AbM Ab/Bb Eb Ab/Eb Eb
nothing raelly matters, nothing really matters to me

Ebdim Bb/D Dbmaj13 C Dbdim C F

Bb F Fdim C7sus4 F
Any way the wind blows
Tunning: Standard (E A D G B e)
Okay guys. This is the bedst tab for bohemian rhapsody. Just try it!
And this tab isnt for new guitar players.
ENJOY!

Gtr I
e|---------|---------|---------|-----|
B|---------|---------|---------|-----|
G|---------|---------|---------|-----|
D|---------|---------|---------|-----|
A|---------|---------|---------|-----|
E|---------|---------|---------|-----|

e|---------3-------|----------|----------------11----11-|
B|-------3---3-----|-6--------|----------11-13----11----|
G|-3---3-------3---|-7--------|-12----12----13----12----|
D|-5-5-----------5-|-8--------|-13-13-------------------|
A|-5---------------|-8--------|-13----------------------|
E|-3---------------|-6--------|-11----------------------|

e|---------------------|----1-5-(5)----|-7--6--5--6--|
B|-----8-11-(11)--8----|-1--1-6-(6)----|-7--6--5--6--|
G|-----8--8--(8)--8----|-2--2-5-(5)----|-8--7--6--7--|
D|-10----10-(10)-10----|-3-------------|-------------|
A|-10------------------|-3-------------|-------------|
E|--8---------------8--|-1-------------|-------------|

e|-7--6--5--6--|-------11----------10----|-----------------------|
B|-7--6--5--6--|-------11----------11----|--9----11----------10--|
G|-8--7--6--7--|-------12----------10----|--9-----9-----9-----8--|
D|-------------|-13-13----13-12-12----12-|-11-11-11-11-10-10-----|
A|-------------|-13----------13----------|-10-----------8--------|
E|-------------|-11----------10----------|--9-----------8--------|

e|---------------^11----|---------15----13----|
B|-(10)----------^10----|---------------------|
G|--(8)-------10-^10----|-7-----7-12----10----|
D|------10-13----^13----|-8---8---------------|
A|----------------------|-8-8-----------------|
E|----------------------|-6----------13----13-|

[Verse 1]
e|---------15----13----||---------15----13-----|
B|---------------------||----------------------|
G|-7-----7-12----10----||-7-----7-12----10-----|
D|-8---8---------------||-8---8----------------|
A|-8-8-----------------||-8-8------------------|
E|-6----------13----13-||-6----------13----13--|

e|---------17----15----|-----------22----20----|
B|-------3-------------|---------8-------------|
G|-3---3---14----12----|--8----8---19----17----|
D|-5-5-----------------|-10-10-----------------|
A|-5-------------------|-10--------------------|
E|-3----------15----15-|--8-----------20----20-|

e|-------------------8-|---------15----13-----|
B|-11------8-10--------|----------------------|
G|--8----8---10-8-10---|-7-----7-12----10-----|
D|-10-10-----10--------|-8---8----------------|
A|-10---------8--------|-8-8------------------|
E|--8------------------|-6----------13----13--|

e|---------17----15----|--------------------|
B|-------3-------------|---------8--------8-|
G|-3---3---14----12----|--8----8----8---8---|
D|-5-5-----------------|-10-10------9---8---|
A|-5-------------------|-10--------10-------|
E|-3----------15----15-|--8---------7-7-6---|

e|-----------------||-------11----------------|
B|-------8---8---8-||-------11----11-------11-|
G|-8---8---8---8---||-------12----12-------10-|
D|-7-7-----6---5---||-13-13----13----13-12----|
A|-6---------------||-13----------------13----|
E|-5-------4---8---||-11----------------10----|

e|-----------22----20----|-------8-8-8---6---|-----------------------|
B|--8------8-------------|--9----9---------7-|-----6-----8-----9-----|
G|--8----8---19----17----|-10-10---9-8-8-7---|-7---7-----7-----7-----|
D|-10-10-----------------|-10--------6---6---|-8---8-----8-----8-----|
A|-10--------------------|--8------7-6---5---|-8---------------------|
E|--8-----------20----20-|-------------------|-6-6---6-6---6-6---6-6-|

e|-------11----------10----|-----------------|----------------11----11-|
B|-------11----------11----|--8----8----4----|----------11-13----11----|
G|-12----12----10----10----|--8----8----4----|-12----12----13----12----|
D|-13-13----13-12-12----12-|-10-10---10-6----|-13-13-------------------|
A|-13----------13----------|-10---------6----|-13----------------------|
E|-11----------10----------|--8---------4----|-11----------------------|

2/4 4/4
e|----11----11-|---------15----13----|
B|-10-----9----|---------------------|
G|-11----10----|-7-----7-12----10----|
D|-------------|-8---8---------------|
A|-------------|-8-8-----------------|
E|-------------|-6----------13----13-|

[Verse 2]
e|---------15----13----||---------15----13----|
B|---------------------||---------------------|
G|-7-----7-12----10----||-7-----7-12----10----|
D|-8---8---------------||-8---8---------------|
A|-8-8-----------------||-8-8-----------------|
E|-6----------13----13-||-6----------13----13-|

e|---------17----15----|-----------22----20----|-------------------8-|
B|-------3-------------|---------8-------------|-11------8-10--------|
G|-3---3---14----12----|--8----8---19----17----|--8----8---10-8-10---|
D|-5-5-----------------|-10-10-----------------|-10-10-----10--------|
A|-5-------------------|-10--------------------|-10---------8--------|
E|-3----------15----15-|--8-----------20----20-|--8------------------|

e|---------15----13----|---------17----15----|--------------------|
B|---------------------|-------3-------------|---------8--------8-|
G|-7-----7-12----10----|-3---3---14----12----|--8----8----8---8---|
D|-8---8---------------|-5-5-----------------|-10-10------9---8---|
A|-8-8-----------------|-5-------------------|-10--------10-------|
E|-6----------13----13-|-3----------15----15-|--8---------7-7-6---|

e|---------------------||-------11------------------|
B|-------8---8---8-----||-------11----11-------11---|
G|-8---8---8---8-------||-------12----12-------10---|
D|-7-7-----6---5-------||-13-13----13----13-12------|
A|-6-------------------||-13----------------13------|
E|-5-------4---8-------||-11----------------10------|
|
| Gtr II
| ~~~~~~~
e|---------------------||---------------------------|
B|---------------------||---------------------------|
G|---------------------||---------------------------|
D|---------------------||---------------------------|
A|---------------------||--6-----------------5s===3-|
E|-5-------4---3p==(0)-||---------------------------|

e|-----------22----20---------|
B|--8------8------------------|
G|--8----8---19----17---------|
D|-10-10----------------------|
A|-10-------------------------|
E|--8-----------20----20------|
|
e|----------------------------|
B|----------------------------|
G|----------------------------|
D|----------------------------|
A|--3-----------------(3)s0---|
E|--------------------------1-|

e|-------8-8-8---6---|----------------------------||
B|--9----9---------7-|-----6-6---8-8---9-9--------||
G|-10-10---9-8-8-7---|-7---7-7---7-7---7-7--------||
D|-10--------6---6---|-8---8-8---8-8---8-8--------||
A|--8------7-6---5---|-8--------------------------||
E|-------------------|-6-------8-----8-----8--8---||
|
| Gtr III
| ~
e|-------------------|----------------------------||
B|-------------------|----------------------------||
G|-------------------|----------------------------||
D|-------------------|--------------------------8-||
A|---------7-6---5---|----------------------------||
E|--1----------------|-6-6-6-6-6-6-6-6-6-6-6------||

[Guitar Solo]
Gtr III
~~ ~~ ~~~~~~~~~~~~ ~~ ~~
e|--------------------------------------|--------------------------------------------|
B|--------------------------11--------8-|-11b13==(11)----(11)r-----13-15-16-13-15-16-|
G|-------10b12==(10)r(10)p8-------------|------------------------x-------------------|
D|--8-----------------------------------|------------------------x-------------------|
A|--------------------------------------|--------------------------------------------|
E|--------------------------------------|--------------------------------------------|
|
| Gtr II
| ~~~~~~~~~~~~~~~~~~~~~~~~~~~~~~~~~~~~~~~~~~~~~~~~~~~~~~~~~
e|--------------------------------------|--------------------------------------------|
B|--------------------------------------|--------------------------------------------|
G|--------------------------------------|--------------------------------------------|
D|--------------------------------------|--------------------------------------------|
A|--6------------------------5----------|--3-----------------------------------------|
E|--------------------------------------|--------------------------------------------|
|
| Gtr I
e|-------11-----------------------10----|--------------------------22-------20-------|
B|-------11-----------------------11----|--8-------------------8---------------------|
G|-12----12-----------------10----10----|--8---------------8-------19-------17-------|
D|-13-13---------13---------12-12----12-|-10----------10-----------------------------|
A|-13-----------------------13----------|-10-----------------------------------------|
E|-11-----------------------10----------|--8--------------------------20-------20----|

~~~~~~~ ~~~~~~
e|---------------------------13-15-16-18-18pb20---|
B|-16pb18=======(16)r(16)-13----------------------|
G|------------------------------------------------|
D|------------------------------------------------|
A|------------------------------------------------|
E|------------------------------------------------|
|
|~~~~~~~~~ ~~
e|------------------------------------------------|
B|------------------------------------------------|
G|------------------------------------------------|
D|------------------------------------------------|
A|----------------7-----------6-----------5-------|
E|--1---------------------------------------------|
|
e|------------8---8-----------8-----------8-------|
B|--9---------9-----------------------------------|
G|-10------10-----9-----------8-----8-----7-----7-|
D|-10-------------------------8-----------6-------|
A|--8-------------7-----------6-----------5-------|
E|------------------------------------------------|

~~~~~~~~~~~~
e|-18s16-16-15-16-15h16p15----15-----------------------------------------------|
B|-------------------------18----18-16-15---16-15h16p15----15------------------|
G|------------------------------------------------------17----17---15-(15)-----|
D|-----------------------------------------------------------------------------|
A|-----------------------------------------------------------------------------|
E|-----------------------------------------------------------------------------|
|
e|-----------------------------------------------------------------------------|
B|-----------------------------------------------------------------------------|
G|-----------------------------------------------------------------------------|
D|-----------------------------------------------------------------------------|
A|-----------------------------------------------------------------------------|
E|-----6-----------6--------6--------6----6-----6-----------6----6------6----6-|
|
e|-----------------------------------------------------------------------------|
B|-----------------6--------6-------------8-----8----------------9------9------|
G|-----7-----------7--------7-------------7-----7----------------7------7------|
D|-----8-----------8--------6-------------8-----8----------------8------8------|
A|-----8-----------------------------------------------------------------------|
E|-----6-----------------------------6----------------------6--------------6-6-|

~~~~~~ ~~~~~~~~~~ ~~
e|-------------------------15-16-18---(18)\----------------15-16-18-----20----|
B|----------------15-16-18------------------------15-16-18--------------------|
G|-(15)--15----17---------------------------15-17-----------------------------|
D|----------------------------------------------------------------------------|
A|----------------------------------------------------------------------------|
E|----------------------------------------------------------------------------|
|
| ~~~~ ~~~~~
e|----------------------------------------------------------------------------|
B|----------------------------------------------------------------------------|
G|----------------------------------------------------------------------------|
D|----------------------------------------------------------------------------|
A|---6-------------------------6----6---5---------------------------(5)--5----|
E|----------------------------------------------------------------------------|
|
e|-------------------11------------------------------------10-----------------|
B|-------------------11------------------------------------11-----------------|
G|--12---------------12----------------10------------------10-----------------|
D|--13------13----------------13-------12------12-------------------12--------|
A|--13---------------------------------13-------------------------------------|
E|--11---------------------------------10-------------------------------------|

~~~~ ~~ ~~~ ~~~~~~ ~~~~~~
e|-(20)----------------------------------|------------------------------13---|
B|-------------15-16-13-15-16-13---15-16-|-16pb18----------------------------|
G|---------------------------------------|---------------10-12-12pb13--------|
D|---------------------------------------|-------------x---------------------|
A|---------------------------------------|-----------------------------------|
E|---------------------------------------|-----------------------------------|
|
| ~~~~ ~~~~~~
e|---------------------------------------|-----------------------------------|
B|---------------------------------------|-----------------------------------|
G|---------------------------------------|-----------------------------------|
D|--------------------5------------------|-----------------------------------|
A|--\3----------------3--------3p1-------|----------------7-----6--------5---|
E|---------4-3--2--3----------------3p=1-|--1--------------------------------|
|
e|-------------------22-------20---------|-----------8----8-----8--------8---|
B|---8----------8------------------------|--9--------9-----------------------|
G|---8-----8---------19-------17---------|-10-----10------9-----8-----8--7-7-|
D|--10--10-------------------------------|-10-------------------8--------6---|
A|--10-----------------------------------|--8-------------7-----6--------5---|
E|---8------------------20---------20----|-----------------------------------|

~~ ~
e|---------------------------------------------||
B|--------------14----14-14-14-14-(14)s17------||
G|-13-------------------------------------6-6--||
D|---------------------------------------------||
A|---------------------------------------------||
E|---------------------------------------------||
|
e|---------------------------------------------||
B|---------------------------------------------||
G|--6----(6)-----------------------------------||
D|--6----(6)--6-----5-----------4---------3----||
A|--4----(4)--4-----3-----------2---------1----||
E|---------------------------------------------||
|
e|-----9--9------------------------------------||
B|--6--9--9---9-----8-----------7---------6----||
G|--6-10-10--10-----9-----------8---------6----||
D|--6--------11----10-----------9---------8----||
A|--4--------11----10-----------9---------8----||
E|------------9-----8-----------7---------6----||

[Interlude]
Gtrs II, III Gtr III
e|-----------------||-----------------------|-----------------------|
B|-----------------||-7-5-5-4-5-7-5-5-4-5-5-|-7-5-5-7-5-5-4-4-5-7-5-|
G|-----------------||-7-6-6-5-6-7-6-6-5-6-6-|-7-6-6-7-6-6-5-5-6-7-6-|
D|-7---------------||-5-7-7-7-7-7-7-7-7-7-7-|-7-7-7-7-7-7-7-7-7-7-7-|
A|-7---------------||-----------------------|-----------------------|
E|-5---------------||-----------------------|-----------------------|
|
| Gtr I
e|-----------------||-----------------------|-----------------------|
B|-5-5-5-5-5-5-5-5-||-----------------------|-----------------------|
G|-6-6-6-6-6-6-6-6-||-----------------------|-----------------------|
D|-7-7-7-7-7-7-7-7-||-----------------------|-----------------------|
A|-----------------||-----------------------|-----------------------|
E|-----------------||-----------------------|-----------------------|

Gtr III
e|-----------------------|----------|
B|-6-6-4-6-4-4-5-5-5-9-9-|-5--------|
G|-6-6-5-6-5-5-5-5-5-7-7-|-6--------|
D|-6-6-6-6-6-6-5-5-5-9-9-|-7--------|
A|-------------------7-7-|-7--------|
E|-4-4-4-4-4-4-3-3-3-0-0-|-5--------|

5/4 4/4
e|----------------------||-7-6-5-6-7-6-5-6-|
B|----------------------||-7-6-5-6-7-6-5-6-|
G|----------------------||-8-7-6-7-8-7-6-7-|
D|--7-7-8-7-5-----------||-----------------|
A|------------8-7-------||-----------------|
E|----------------------||-----------------|

e|----------------------------------|
B|--9--8--8--7--8--9--9--8--7--7--8-|
G|--8--8--8--8--8--8--8--8--8--8--8-|
D|-10--8--8--7--8-10-10--8--7--7--8-|
A|----------------------------------|
E|-11-11-11-11-11-11-11-11-11-11-11-|

2/4
e|-----------------------------|----11----11----11----11--|
B|-4-4-4-4-4-4-4-4-4-4-3-11-11-|-12----11----10-----9-----|
G|-5-5-5-3-3-3-2---2-2-3-------|-13----12----11----10-----|
D|-6-6-6-5-5-5-1---1-1-3-------|--------------------------|
A|-6-6-6-6-6-6-3---3-3-1-------|--------------------------|
E|-4-4-4-3-3-3-1---1-1---------|--------------------------|

4/4
e|-7-6-5-6-7-6-6---|-----6--------------|
B|-7-6-5-6-7-6-5---|-4---8-6-----6------|
G|-8-7-6-7-8-7-6---|-3---8-7-7-8---8-7--|
D|---------------8-|-5-8-8-8-8-8-8-8-8--|
A|---------------8-|-6-8-6--------------|
E|---------------6-|---6---6-6-6-6-6-6--|

2/4
e|---------------------|----------|
B|--6-8---------6------|--6-8-----|
G|--7-8-7-7-7-8---8-7--|--7-8-7-7-|
D|--8-8-8-8-8-8-8-8-8--|--8-8-8-8-|
A|--8-6-8--------------|--8-6-8---|
E|--6---6-6-6-6-6-6-6--|--6---6-6-|

4/4
e|-----------------------|----------------|
B|-----6----------6------|-----6----------|
G|-7-8---8-7--7-8---8-7--|-7-8---8-7------|
D|-8-8-8-8-8--8-8-8-8-8--|-8-8-8-8-8------|
A|-----------------------|----------------|
E|-6-6-6-6-6--6-6-6-6-6--|-6-6-6-6-6------|

3/4 2/4
e|--------------|-------------|--------------|
B|-----7-6-11---|-------11-11-|-13-11------6-|
G|-----7-6-11---|-8-----12-12-|-13-12------7-|
D|-9-7-7-6-11-8-|-8-----13-13-|-13-13------8-|
A|-9-7-5-4--9-8-|-6-----13-13-|-11-13------8-|
E|-7-5--------6-|-------11-11-|----11-10-9-6-|

Faster Q.=138
4/4 12/8
e|-----4-4-8-8-8-8-3-3-|--------------|
B|-8-8-4-4-7-7-7-7-3-3-|--------------|
G|-8-8-5-5-7-7-7-7-3-3-|--------------|
D|-8-8-6-6-7-7-7-7-5-5-|-8---8-8-8----|
A|-6-6-6-6-5-5-5-5-5-5-|-8---8-8-8----|
E|-----4-4---------3-3-|-6---6-6-6----|

Gtrs II, III
e|-----------------------|-------------------|-----------------------------||
B|-----------------------|-------------------|-----------------------------||
G|-----------------------|-------------------|-----------------------------||
D|-8---8--8--8------8----|-8---8--8-8---8--8-|--8--8-8-8-8-8--8--8-8-------||
A|-8---8--8--8------8----|-8---8--8-8---8--8-|--8--8-8-8-8-8--8--8-8----3s=||
E|-6---6--6-(6)--6-(6)---|-6---6--6-6---6--6-|-(6)-6-6-6-6-6-(6)-6-6-6-----||

PM| ~~~~~~
e|-----------------------|-----------------------------|-----------------------|
B|-----------------------|-----------------------------|-----------------------|
G|-----------------------|-----------------------------|-----------------------|
D|-----------------------|-----------------------------|-----------------------|
A|-6--------------3-5-6--|-6-------------3-------------|-6--------------3-5-6--|
E|----3-(3)-4--6---------|----3-(3)-4--6---6-(6)--(6)\-|----3-(3)-4--6---------|

[Bridge]
~~~~~~
e|--------------------------||--------------|------------------|
B|--------------------------||--------------|------------------|
G|--------------------------||--------------|----------8---8---|
D|--------------------------||-8------------|-(8)------8---8---|
A|-8-------------5----------||-8------------|-(8)------6---6---|
E|----5-(5)-6--8---8-(8)--8-||-6------------|-(6)--------------|

6/8 12/8
~ ~~~~~~~~
e|-----------------------|-------------|--------------------|
B|-----------------------|-------------|--------------------|
G|-----------------------|---6--(6)p=0-|--------------------|
D|-8---(8)s=3s8--6-8-6---|-------------|-8------(8)---8\----|
A|-8---(8)-------------8-|-4-----------|-8------(8)---------|
E|-6---(6)---------------|-------------|-6------(6)-------0-|

e|---------------------------|-------------------------|-------------------|
B|---------------------------|-4------(4)--4-(4)-3-(3)-|-------------------|
G|---------------------------|-5------(5)--5-(5)-3-(3)-|-------------------|
D|-3---(3)-------------------|-6------(6)--6-(6)-5-(5)-|-3------(3)---(3)--|
A|-1---(1)--1s6-6--6-(6)-6p0-|-6------(6)--6-(6)-5-(5)-|-3------(3)---(3)--|
E|---------------------------|-4------(4)--4-(4)-3-(3)-|-1------(1)----1p0-|

e|-----------------------|---------------------|------------------------|
B|-3---------------------|---------------------|-3---3------------------|
G|-3---------------------|---------------------|-3---3------------------|
D|-3------3h5--3-(3)-----|---------------------|-3---3---------3-5p3----|
A|-1-----------------5p3-|------------------3--|-1---1--3-3s5--------5\-|
E|-----------------------|-1------(1)---(1)----|--------x---------------|

e|------------------|------------------------|------------------------|
B|------------------|------------------------|------------------------|
G|-----------3------|------------3---(3)-----|------------------------|
D|-----------3------|----------x-3---(3)-----|------------------------|
A|-----------1------|----------x-1---(1)-1s6-|-6--------------3-5-6---|
E|-1---(1)p0--------|-1---(1)--x-------------|----3-(3)-4--6----------|

~~~~~~
e|-----------------------------|-----------------------|-----------------------|
B|-----------------------------|-----------------------|-----------------------|
G|-----------------------------|-----------------------|-----------------------|
D|-----------------------------|-----------------------|-----------------------|
A|-6-------------3-------------|-6--------------3-5-6--|-8--------------5-7-8--|
E|----3-(3)-4--6---6-(6)--(6)\-|----3-(3)-4--6---------|----5-(5)-6--8---------|

F# G# A# B5 Ab5
Gtr I
| | | | | | |
/ / / / / / /

Gtrs II, III
~~~~~~ ~ ~
e|-------------------------|------------------------|------------------------|
B|-------------------------|------------------------|------------------------|
G|---------------5----5-6--|-------------6---6-8-9--|---------------------3--|
D|---6-8-(8)-6-8----8------|-------6-8-9---9--------|-----------3-4p3-4-6----|
A|-9-----------------------|-6h7-9------------------|-----3-4-6--------------|
E|-------------------------|------------------------|-4h6--------------------|

e|----------------------------|
B|-----------------------8-9--|
G|------7----7-8-10-8-10------|
D|-8-10---10-------------5-6--|
A|------5----5-6--8-6--8------|
E|-6--8----8------------------|
|
| Gtr I
e|----------------------------|
B|----------------------------|
G|----------------------------|
D|-8--------------------------|
A|-8--------------------------|
E|-6--------------------------|

9/8
e|-----------------------------|----------------------||
B|-----------------------------|----------------------||
G|-----------------------------|----------------------||
D|-x-8-8-(8)-----(8)-----------|-(8)-----------(8)----||
A|-x-8-8-(8)-----(8)-----------|-(8)-----------(8)----||
E|-x-6-6-(6)-----(6)-----------|-(6)-----------(6)----||
|
e|-----------------------------|----------------------||
B|-----------------------------|----------------6-----||
G|-----------------------------|-------5---7----------||
D|-----------------------5-6-5-|--6--8---8---8-----8--||
A|-----5-----5-6--8--6-8-------|----------------------||
E|-6-8----8--------------------|----------------------||

[Outro]
A Tempo Q=72
Eb BBb/D D Cm G/BCm
4/4
Gtr I
| | || | | | | | |
/ / o/ / o / / / /

Gtrs III, IV
~~ ~~ ~~~~~~~
e|---------------------------|--------------------------|
B|-------8-11-----------11---|-(11)------8-13s(9)-8--8--|
G|-----8-----------7-10------|---------8----------7--8--|
D|---8-----------8-----------|------10------------------|
A|---------------------------|--------------------------|
E|---------------------------|--------------------------|
|
| Gtr II
| ~
e|---------------------------|--------------------------|
B|---------------------------|--------------------------|
G|---------------------------|--------------------------|
D|---------------------------|--------------------------|
A|-6-----------5-----------5-|---3----------------2--3--|
E|---------------------------|--------------------------|
|
| Gtr V
e|---------------------------|--------------------------|
B|---------------------------|--------------------------|
G|---------------------------|--------------------------|
D|---------------------------|--------------------------|
A|---------------------------|--------------------------|
E|---------------------------|--------------------------|

G/B Cm Bb Eb(type 2)
| | | |
/ / / /

~~~~ ~~
e|-------------------------------|
B|-8----9-8--8-8h=9-8-----10h11--|
G|-7---10-8--7-8-10-8-----10-12--|
D|-------------------------------|
A|-------------------------------|
E|-------------------------------|
|
| ~
e|-------------------------------|
B|-------------------------------|
G|-------------------------------|
D|-------------------------------|
A|-2s3s=5-3---------6------------|
E|-----------6-------------------|
|
e|--------------------/15--------|
B|--------------------/16--------|
G|--------------------/15--------|
D|-------------------------------|
A|-------------------------------|
E|-------------------------------|

Gtrs III, IV
~~~~~~~~~~~~~~~~~~~~~~~~~~~~~
e|-----------------------------------|-----------------------------------|
B|-10s==3-----3----------------------|-(3)-------------------------------|
G|-11---7-----7----------------------|-(7)-------------------------------|
D|-----------------------------------|-----------------------------------|
A|-----------------------------------|-----------------------------------|
E|-----------------------------------|-----------------------------------|
|
| Gtr II
| ~~~~~~~~~~~~~~~~~~~~~~~~~~~~~~~~~ ~~
e|-14--15-17-17pb18===========(17)r\-|-11-------11-----(11)--11----------|
B|-15--17-19-19pb20===========(19)r\-|-13-------13b15==(13)rs11----------|
G|-14--------------------------------|-13s======15s==========12----------|
D|-----12----------------------------|-----------------------------------|
A|-----------------------------------|-----------------------------------|
E|-----------------------------------|-----------------------------------|
|
| Gtr I
e|-----------------------------------|-----------------------------11----|
B|-10-----10-11------------11--------|----11-----------------11----------|
G|-11--11----12---------12-----------|-------13--------------12----------|
D|-12--12----12------12--------------|----------13--------------13----13-|
A|-12--------10----------------------|-11--------------------------------|
E|-10--------------------------------|-----------------------------------|

e|----------------------------|------------------|
B|----------------------------|------------------|
G|----------------------------|------------------|
D|----------------------------|------------------|
A|----------------------------|------------------|
E|----------------------------|------------------|
|
e|----(11)-----------10-------|------------------|
B|-11s=13------13s15-11-------|------------------|
G|----(12)-----12s15-12-------|------------------|
D|----------------------------|------------------|
A|----------------------------|------------------|
E|----------------------------|------------------|
|
e|-----------3------------3---|-------3----------|
B|-----------4--------3-------|-4---4---3-----3--|
G|---------5----5-----3-------|-5-5-----3---3----|
D|------5-------------5-5---5-|-5-------5-5------|
A|------3-------------5-------|-3-------5--------|
E|--------------------3-------|---------3--------|

Gtr I
e|-3-----3------|-----------|
B|-4---4---4----|-^4--------|
G|-5-5-----4----|-^5--------|
D|-5-------6----|-^6--------|
A|-3-------6----|-----------|
E|---------4----|-^6--------|

e|-------------------------|--------------------------|
B|-11-------11-13-15-13-15-|-11-------11-13-15-13-15--|
G|-12----12----13----13----|-12----12----14----14-----|
D|-13-13-------------------|-13-13-------13----13-----|
A|-13----------------------|-13-----------------------|
E|-11----------------------|-11-----------------------|

H.=H
e|-----------------------8-|-----------------------|-------------------13----|
B|-11-------11-11----11----|------------8-11-9-9-8-|--------------10------10-|
G|-10----10----10----10----|--9------9-------------|--9-9------10---------10-|
D|-12-12-------11----11----|-10-10--------11-------|-10---10-8--7------------|
A|-13----------------------|-10--------------------|-10---------8------------|
E|-10-----------9----------|--8--------------------|--8----------------------|
|
| Gtrs II, III Gtr II
| ~~~~ ~~
e|-------------------------|-----------------------|-------------------------|
B|-------------14s13-13s11-|-----------------------|-------------------------|
G|-------------15s13-13s12-|-12----(12)------------|-12s8------------9s10----|
D|-------------------------|-----------------------|------10-8--7------------|
A|-------------------------|-----------------------|-------------------------|
E|-------------------------|-----------------------|-------------------------|

H.=H
e|------13----13----13----13-|-------*|
B|--15-----13----12----11----|-10----*|
G|--15-----14----13----12----|-10----*|
D|---------------------------|-10----*|
A|---------------------------|--8----*|
E|---------------------------|-------*|
|
e|---------------------------|-------*|
B|---------------------------|-------*|
G|-(10)----------------------|-------*|
D|---------------------------|-------*|
A|---------------------------|-------*|
E|---------------------------|-------*|


************************************

| (n) Ghost note
| ~ Vibrato
| b Bend
| x Dead note
| pb Pre-bend
| h Hammer-on
| p Pull-off
| \ Slide down
| / Slide up
| * Natural harmonic

************************************
Tunning: Nashville (E A D G B E)
----------------------------------------------------------------------------
Bohemian Rhapsody - Queen
----------------------------------------------------------------------------
Tabbed by: slash_rhoads
Email: slash_2k4@hotmail.com

Tuning: Standard EADGBE

|----------------------------------------------------------------|
|-------------------11------8----11b---------13--15-16-13--15-16-|
|------------10r--8----------------------------------------------|
|----8-----------------------------------------------------------|
|----------------------------------------------------------------|
|----------------------------------------------------------------|

--------------15-16-18-18b--18r16-15-16-15h16h15----15-------------|
-16b-16-13-18------------------------------------18----18-16-15-16-|
-------------------------------------------------------------------|
-------------------------------------------------------------------|
-------------------------------------------------------------------|
-------------------------------------------------------------------|

-------------------------------------15-16-18----------------15-16-18--18b-|
15h16h15----15--------------15-16-18----------------15-16-18---------------|
---------17----17-15--15-17-------------------15-17------------------------|
---------------------------------------------------------------------------|
---------------------------------------------------------------------------|
---------------------------------------------------------------------------|

---------------------------------------13---------------------------------|
-15-16-13-15-16-13-15-16-16b-----------------14-14-14-14-14/7-------------|
-----------------------------10-12-13-----13------------------6-6-7h6h4---|
------------------------------------------------------------------------7-|
--------------------------------------------------------------------------|
--------------------------------------------------------------------------|

Then the final Riff:

T = 207

E|---------------------------------|--------------------------------|
B|---------------------------------|--------------------------------|
G|---------------------------------|--------------------------------|
D|---------------------------------|--------------------------------|
A|--6-------------------3--5--6----|--6-----------------3-----------|
E|-------3----4----6---------------|-------3----4----6-----6--------|

---------------------------------|---------------------------------|
---------------------------------|---------------------------------|
---------------------------------|---------------------------------|
---------------------------------|---------------------------------|
--6-------------------3--5--6----|--8-----------------5------------|
-------3----4----6---------------|-------5----6----8-----8------x--|

---------------------------|------------------------------|
---------------------------|------------------------------|
---------------------------|------------------------------|
--8------------------------|----------------------5-------|
--8------------------------|--------------6----6-----6----|
--6------------------------|------------------------------|

----------------------------------|----------------|
----------------------------------|----------------|
----------------------------------|-------6~-------|
--8------8/---3--8----6--8h-6-----|----------------|
--8------8/---3----------------8--|--4-------------|
--6------6/---1-------------------|----------------|

-----------------------------|------------------------------|
-----------------------------|------------------------------|
-----------------------------|------------------------------|
--8------------------8/---3--|--8------------8----8----8----|
--8------------------8/---3--|--8------------6----6----6----|
--6------------------6/---1--|--6---------------------------|

-----------------------------|-------------------|
-----------------------------|-------------------|
-----------------------------|-------------------|
-----------------------------|-------------------|
--6----------------6----5----|--3----------------|
--4----------------4----3----|--1----------------|

-------------------------------|------------------------------|
-------------------------------|------------------------------|
-------------------------------|------------------------------|
--3------------5----3----------|------------------------------|
--1----------------------5h-3--|--3----3--------3----3--------|
-------------------------------|--1----1--------1----1--------|

---------------------------------|------------------------------|
---------------------------------|------------------------------|
---------------------------------|------------------------------|
--3------------------3--5h-3-----|----------------3----3--------|
--1----------1--5-------------5--|--3----3--------1----1--------|
---------------------------------|--1----1----------------------|

-----------------------------|---------------------------------|
-----------------------------|---------------------------------|
-----------------------------|---------------------------------|
----------------3------------|---------------------------------|
--3----3--------1------------|--6-------------------3--5--6----|
--1----1---------------------|-------3----4----6---------------|

--------------------------------|---------------------------------|
--------------------------------|---------------------------------|
--------------------------------|---------------------------------|
--------------------------------|---------------------------------|
--6-----------------3-----------|--6-------------------3--5--6----|
-------3----4----6-----6--------|-------3----4----6---------------|

---------------------------------|
---------------------------------|
---------------------------------|
---------------------------------|
--8-------------------5--7--8----|
-------5----6----8---------------|

-------------------------------------------|
-------------------------------------------|
-------------------------------------------|
-----------------------10--------10--11----|
--9--11--13----11--13--------13------------|
-------------------------------------------|

-------------------------------------------|
-------------------------------------------|
-----------------------------------8--9----|
---------------------9--11--9--11----------|
----------9--11--12------------------------|
--11--12-----------------------------------|

-------------------------------------|
-------------------------------------|
--------------------------------3----|
-----------------3--4--3--4--6-------|
--------3--4--6----------------------|
--4--6-------------------------------|

-------------------------------------||
--------------------6-----6--8--9----||
-----5--7--5--7--8-----8-------------||
--8----------------------------------||
-------------------------------------||
-------------------------------------||

The Final solo, its not very accurate but its ok

Gtr 1
|-----------------------|
|-------8-11------------|
|-----8-----------------|
|---8-------------------|
|-----------------------|
|-----------------------|

Gtr 2
|--------------------------|
|--------------------11----|
|-----------------10-------|
|--------------12----------|
|-----------13-------------|
|--------------------------|


Gtr 1
--------------------------|------------------------------------|
--------8-11b-------------|------------------------------------|
------8---------7----8----|--7---10-8----10---12h13-12---14h15-|
---10---------------------|------------------------------------|
--------------------------|------------------------------------|
--------------------------|------------------------------------|

Gtr 2
----------------------|-----------------------------------|
----------------------|-----------------------------------|
----------12----12----|--12---13-12----7---8h10-8---10h12-|
----------------------|-----------------------------------|
----------------------|-----------------------------------|
----------------------|-----------------------------------|

Gtr 3

|------|---------------11/--15--|
|------|------------------------|
|------|------------------------|
|------|------------------------|
|------|------------------------|
|------|------------------------|

Gtr1
------------------------|------------------|
------------------------|------------------|
--14---14/7----7--------|------------------|
------------------------|------------------|
------------------------|------------------|
------------------------|------------------|

Gtr2
----------------------|------------------|
----------------------|------------------|
--11------------------|------------------|
--------12------------|------------------|
----------------------|------------------|
----------------------|------------------|

Gtr3
-14----15--17--17b------17/|--8------8/10/6--------|---8-----8/10/6--------|
---------------------------|-----------------------|-----------------------|
---------------------------|-----------------------|-----------------------|
---------------------------|-----------------------|-----------------------|
---------------------------|-----------------------|-----------------------|
---------------------------|-----------------------|-----------------------|

and then the last guitar part

-----------------------|-------------------|------------------------|
----------11/-9--9/-8--|--8----------------|--8/-5-------------6----|
-----------------------|-------------------|--------5--3--2---------|
-----------------------|-------------------|------------------------|
-----------------------|-------------------|------------------------|
-----------------------|-------------------|------------------------|

and thats all...

comments, request, spam, life threading messages go to: slash_2k4@hotmail.com

| / slide up
| \ slide down
| h hammer-on
| p pull-off
| ~ vibrato
| + harmonic
| x Mute note
| r Bend Release
| b Bend
============================================================================
Tunning: Standard (E A D G B e)
This was all tabbed by ear. it sounds just right but let me know what you think,

Bohemian Rhapsody - words and music by Freddie Mercury

Brian Mays sound consits of a treble boost pedal , vox ac 30 and a brian may special guitar.

The Brian May guitar was an outstanding design it allows you to put any pickups in phase
out of phase. it was a great invention by him and his dad. Lots of Brian May's tone comes
from the guitar and lets not forget his fingers. The vox ac 30 is still on sale now but
a very clean sounding amp and in order to achieve that Brian May sound your going to
to
push the amp and add a treble boost pedal.

Brian Mays sound is very unique and trying to recreate is sound can take a very long time.


Right now to the song, the first time you here Brian May's guitar its a thunderous 5 4 3
the low e
with intense vibrato.

e|---------------------|
B|---------------------|
G|---------------------|
D|---------------------|
A|---------------------|
E|---5----4----3-------|

I noticed on the live version he played a bit extra which is somthing like this.


e|---------------------------------|
B|---------------------------------|
G|---------------------------------|
D|----------------------1----------|
A|---------------3~-------2--------|
E|---4--3---2-3-------------3--1-1-|


This is a great solo and if you have the burns brian may guitar set the middle and neck
pickups out of phase. you could also add the bridge pickup to add a deep sound. if you havent
just mess around with your equipment and do whatever sounds best to you.


e|--------------------------------|
B|------------------11--8--11b13--|
G|-----10b12==r10p8---------------|
D|-8-8----------------------------|
A|--------------------------------|
E|--------------------------------|


Make sure you bend those and let them ring out. listen to the original and copy the bends.

e|----------------------------------------|
B|---13~--15--16--13~--15--16--16b18===r16|
G|----------------------------------------|
D|----------------------------------------|
A|----------------------------------------|
E|----------------------------------------|


e|------------------------15--16--18-18b20|
B|---------------------18-----------------|
G|-----------------17---------------------|
D|----------------------------------------|
A|----------------------------------------|
E|----------------------------------------|

Now we have the run , the quick hammer ons and
pull offs create this the sort of special effects of this run.
make sure you hit the 18 string once after releasing it before you go into the run
if you want to sound like the recording.

e|-20rb18-16-15-16-15h16p15----15-------------------------------------|
B|--------------------------18----18-16-15---16-15h16p15----15--------|
G|-------------------------------------------------------17----17--15-|
D|--------------------------------------------------------------------|
A|--------------------------------------------------------------------|
E|--------------------------------------------------------------------|

Now we have 2 short average fast runs.

e|----------------15-16-18-|----------------15-16-18--18b20--|
B|-------15-16-18----------|-------15-16-18------------------|
G|-15-17-------------------|-15-17---------------------------|
D|-------------------------|---------------------------------|
A|-------------------------|---------------------------------|
E|-------------------------|---------------------------------|

e|-----------------------------------------|
B|-15-16-13~~--15-16-13~~--15-16---16b18---|
G|-----------------------------------------|
D|-----------------------------------------|
A|-----------------------------------------|
E|-----------------------------------------|

e|------------13---|---------------------------------|
B|-----------------|------14----14-14-14-14-\7-------|
G|---10-12-13------|-13------------------------------|
D|-----------------|---------------------------------|
A|-----------------|---------------------------------|
E|-----------------|---------------------------------|

after you hit the 14th fret of B string for the last time slide up and play this

just give a small flick to the 6th and quick pluck the 7th fret of the D string.
e|-------------------|
B|-------------------|
G|----------5h6p5----|
D|-----------------7-|
A|-------------------|
E|-------------------|


I hope you the best with the first solo, just keep at it. now for the rock section


e|---------------------------------------------------------------------------|
B|---------------------------------------------------------------------------|
G|---------------------------------------------------------------------------|
D|---------------------------------------------------------8-----------------|
A|--6-------3-5-6--6-------3----6-------3-5-6-8-------5----8-----------------|
E|----3-4-6----------3-4-6---6----3-4-6---------5-6-8---8--6-----------------|

Then we have that fantastic fast run after the power chords and lyric
so you think you can stone me and leave me to die.

e|------------------------|
B|------------------------|
G|-8-8-------------------6|
D|-8-8--8--8~-6-8 6-------|
A|-6-6--8------------8----|
E|------6--------------9--|


e|------------|
B|------------|
G|------8--8-8|
D|----8-8--8-8|
A|----8-6--6-6|
E|----6-------|

then we have rising power chords like this

e|-----------|
B|-----------|
G|-----------|
D|--6--6-5--3|
A|--6--6-5--3|
E|--4--4-3--1|

Then we play a power chord on the next string and play 2 other small runs

e|------------------------|
B|------------------------|
G|-3---------------------3|
D|-3------3/5---3--------3|
A|-1--------------5--3---1|
E|---------------------1--|

e|----------------------|
B|----------------------|
G|----------------------|
D|-------3--5--3--------|
A|-3/5-----------5------|
E|--------------------1-|

then we basically keep changing power chords till the main rock riff starts again

e|-------|
B|-------|
G|-----3-|
D|-3---3-|
A|-3---1-|
E|-1-----|(x2)

now we play the same riff as the start with a bit extra at the end

e|-------------------------------------------------------------|
B|-------------------------------------------------------------|
G|-------------------------------------------------------------|
D|-------------------------------------------------------------|
A|--6-------3-5-6--6-------3----6-------3-5-6-8---------5--6-8-|
E|----3-4-6----------3-4-6---6----3-4-6---------5-6-8----------|


Now we get a seiries of runs. these are hard to play because on the recording
it seems like brian plays a run stops , then records the next thats why they seem so fast.
i have also read that they are lowered an octave with the record gear but i cant see that.

there are 4 runs and i will include them all here, i think they go somthing like this

number one - basically three notes stop , next three notes stop and continue. these are
fast
with very short stops after 3 notes are played

e|--------------------------------|
B|--------------------------------|
G|-------------------5~-----5--6~-|
D|------6--8~--6--8-------8-------|
A|----9---------------------------|
E|--------------------------------|


Number two - this is like a scale and its played like this

e|----------------------------------|
B|----------------------------------|
G|----------------------6---6--8--9-|
D|-------------6--8--9----9---------|
A|----6--8--9-----------------------|
E|----------------------------------|

Number three

e|----------------------------|
B|----------------------------|
G|--------------------------3-|
D|----------------3-4-3-4-6---|
A|----------4--6--------------|
E|-4--6--7--------------------|

as you can see with these runs you may need to use your pinky finger a fair bit.

number four - shortest run because the piano takes over at the end.

e|--------------------------|
B|--------------------------|
G|--------------------------|
D|---------------------5--6-|
A|-------5-----5--6--8------|
E|--6--8----8---------------|

if you managed to get through those runs give it a nice power chord

e|---|
B|---|
G|--3|
D|--3|
A|--1|
E|---| hit that chord with a downstroke twice

Now for the wonderful harmonic outro.

First part sounds like this


e|-------------|
B|-------8--11-|
G|-----8-------|
D|---8---------|
A|-------------|
E|-------------|

e|-------------|
B|----------11-|
G|-------10----|
D|----12-------|
A|-13----------|
E|-------------|


e|-----------|
B|------8--11|
G|---8-------|
D|10---------|
A|-----------|
E|-----------|

note - the last time brian hits the 11 fret of the B string
he very slightly bends the string, you may want to add this or not.

The next part i am a bit unsure about, i think its somthing like this

brians tone is so full of harmonics its hard to tell at this point.

e|14b--14--12--14--14b|
B|--------------------|
G|--------------------|
D|--------------------|
A|--------------------|
E|--------------------|

I am probley wrong about that part but its somthing like that.

now for the final parts

pluck the thirteen fret twice then slide down to 15 and up to 11. listen
to the end of the recording part to get idea of tone for this bit.

e|-------------------|
B|---13--13-/-15-\-11|
G|-------------------|
D|-------------------|
A|-------------------|
E|-------------------|

Now the anyway the wind blows final outro.

you need to turn your gain down and if possible use a neck pickup to get that
flute sound.


e|-------------------------------------------------|
B|-------------------------------------------------|
G|---15--15--\13-13-\12--12~--12\-9~------------9~~|
D|-------------------------------------10--8--7----|
A|-------------------------------------------------|
E|-------------------------------------------------|

************************************

| h Hammer-on
| p Pull-off
| b Bend
| / Slide up
| \ Slide down
| ~ Vibrato
| br bend release

************************************
Tunning: Standard (E A D G B e)
"...open your eyes..." "easy come.."
e|---------3-------1-----------8-11-6-11-----------1-1---1-|-----------------|
B|-------3---3-----3---------8-----------8-8---8-8-1-1---1-|-----------------|
G|-----3-------3---1-------8-------------5-5---5-5-2-2---2-|-8-7-6-7-8-7-6-7-|
D|---5-----------5-3-----8---------------5-5---5-5-1-1---1-|-9-8-7-8-9-8-7-8-|
A|-5---------------1---6-----------------6-6-6-6-6-3-3---3-|-9-8-7-8-9-8-7-8-|
E|-------------------------------------------------1-1-1-1-|-7-6-5-6-7-6-5-6-|

"...me.."
e|---------------------------------------5-/13-|---------------------------------|
B|-------8-8---8-8---8-8-8-8---6-------6-------|---------8---6-----------8---6---|
G|-------8-8-7-6---6-6-6-6-6---5-----5---------|-------7---------------7---------|
D|-----8-8-8-8-8-----8-8-8-8---7---7-----------|-----8---------------8-----------|
A|-10-10-----8-7-----7-7-7-7-8-8-8-------------|---8-------8---8---8-------8---8-|
E|-----------6---------------------------------|-6---------------6---------------|

e|-------------------------5---3-----------10----8------------5---5-8-|
B|---------8---6---------3---------------8------------------8---6-----|
G|-------7-------------3---------------5------------------5-----------|
D|-----8-------------5-------5---5---5--------10---10---5-------------|
A|---8-------8---8-----------------6------------------6---------------|
E|-6---------------3--------------------------------------------------|

e|-------------------------5---3-------------------------3---3---3-|
B|---------8---6---------3---------------8---8---8-----4-----------|
G|-------7-------------3---------------5-------------5-------------|
D|-----8-------------5-------5---5---5-----------------------------|
A|---8-------8---8-----------------6---------------0---------------|
E|-6---------------3-----------------------8---7-----------4---3---|

"mama..."
e|-------------------------10----8------------------------------------|
B|-----8------------------------------8-8-8-6-6-6---------------------|
G|-----8-----------------9------------5-5-5-5-5-5-7-7-7-7-7-7-7-7-7-7-|
D|-----8-8------------10------10---10-5-5-5-6-6-6-8-8-8-8-8-8-8-8-8-8-|
A|-6-6---6-6-6-5---10-----------------6-6-6-8-8-8-8-8-8-8-8-8-8-8-8-8-|
E|---------------8--------------------------------6-6-6-6-6-6-6-6-6-6-|

e|---------------6----------------------8-11-6-11----11---11-|
B|-----8-8-----8---------8---8--------8-----------10----9----|
G|-----8-8---8---------8---7-8------8------------------------|
D|---8-8-8-8---------8-----8-8----8--------------------------|
A|-6---------------6-------8-6--6----------------------------|
E|-------------------------6---------------------------------|

"too late"
e|---------------------------------------------------------5---3---|
B|---------8---6-----------8---6-----------8---6---------3---------|
G|-------7---------------7---------------7-------------3-----------|
D|-----8---------------8---------------8-------------5-------5---5-|
A|---8-------8---8---8-------8---8---8-------8---8-----------------|
E|-6---------------6---------------6---------------3---------------|

e|---------10----8------------5---5-8-|
B|-------8------------------8---6-----|
G|-----5------------------5-----------|
D|---5--------10---10---5-------------|
A|-6------------------6---------------|
E|------------------------------------|

e|-------------------------5---3--------------------------|
B|---------8---6---------3---------------8---8---8--------|
G|-------7-------------3---------------5------------------|
D|-----8-------------5-------5---5---5--------------------|
A|---8-------8---8-----------------6----------------------|
E|-6---------------3-----------------------8---7---5--4-3-|

e|-------------------------10----8------------------------------------|
B|-----8------------------------------8-8-8-6-6-6---------------------|
G|-----8-----------------9------------5-5-5-5-5-5-7-7-7-7-7-7-7-7-7-7-|
D|-----8-8------------10------10---10-5-5-5-6-6-6-8-8-8-8-8-8-8-8-8-8-|
A|-6-6---6-6-6-5---10-----------------6-6-6-8-8-8-8-8-8-8-8-8-8-8-8-8-|
E|---------------8--------------------------------6-6-6-6-6-6-6-6-6-6-|

[Solo]
e|--------------------------8-10-11-8-10-11-13~---13-15-16-18-20~-|
B|--------------11p8-11(13)--------------------13-----------------|
G|---10(12)10-8---------------------------------------------------|
D|-8--------------------------------------------------------------|
A|----------------------------------------------------------------|
E|----------------------------------------------------------------|

e|-20-18-15h16p15h16p15----15----------------------------------|
B|----------------------18----18-16-15-16-15h16p15----15-------|
G|-------------------------------------------------17----17-15-|
D|-------------------------------------------------------------|
A|-------------------------------------------------------------|
E|-------------------------------------------------------------|

e|---------------15-16-18----------------15-16-18-20~----------------------------|
B|-------15-16-18---------------15-16-18--------------15-16-13-15-16-13-15-16-18~|
G|-15-17------------------15-17--------------------------------------------------|
D|-------------------------------------------------------------------------------|
A|-------------------------------------------------------------------------------|
E|-------------------------------------------------------------------------------|

e|----------13---------------------|
B|-----------------14-14-14-14/2---|
G|-10-12-13----13------------------|
D|-------------------------------7-|
A|---------------------------------|
E|---------------------------------|

(opera section)
e|-------------------------------------------------------------------------------------|
B|---------------7-----7---7-----7-----7-----7-----7-7---7-----------------------------|
G|-6-6-6-6-6-6-6-7-6-6-5-6-7-6-6-5-6-6-7-6-6-7-6-6-5-5-6-7-6---------8-8-------------6-|
D|-7-7-7-7-7-7-7-7-7-7-7-7-7-7-7-7-7-7-7-7-7-7-7-7-7-7-7-7-7-6-6-6-6-6-6-2-2-2-2-2-2-7-|
A|---------------5-7-7-6-7-5-7-7-6-7-7---7-7---7-7-6-6-7-5-7-8-8-8-8-6-6-3-3-3-3-2-2-7-|
E|-----------------5-5---5---5-5---5-5---5-5---5-5-----5---5-4-4-4-4-6-6-3-3-3-3-0-0-5-|

"galileo figaro" "im just a poor boy..."
e|---------------------------------------------------------------------------|
B|---------------------------------4-8-8-7-8-4-4-8-7-7-8-4-4-4-8-8-8-6-6-6---|
G|-----------------8-7-6-7-8-7-6-7-5-8-8-5-8-5-5-8-5-5-8-5-5-5-8-8-8-5-5-5-7-|
D|-----------------9-8-7-8-9-8-7-8-6-8-8-7-8-6-6-8-7-7-8-6-6-6-8-8-8-7-7-7-8-|
A|-----------------9-8-7-8-9-8-7-8-6-6-6-6-6-6-6-6-6-6-6-6-6-6-6-6-6-8-8-8-8-|
E|-5-5-6-5-3-1-0---7-6-5-6-7-6-5-6-----------------------------------------6-|

e|-8-8-8-8-11-6-11----11---11-----------------------------------------------------|
B|-----------------10----9--------------------8---8-----------------8-------------|
G|----------------------------8-7-6-7-8-7-6-7-8-7-8-------7-7-7---7-8-------7-7-7-|
D|----------------------------9-8-7-8-9-8-7-8-8-8-8-8-8-8-8-8-8---8-8-8-8-8-8-8-8-|
A|----------------------------9-8-7-8-9-8-7-8-6-8-6-8-8-8-8-8-8---8-6-8-8-8-8-8-8-|
E|----------------------------7-6-5-6-7-6-5-6---6---6-6-6-----6---6---6-6-6-----6-|

"no no..." "mamamia let me go"
e|-------------------------------------------------------2-----|---------------|
B|---8-------------------------------------------7---7-6-2-----|-----8-8-------|
G|-7-8-------7-7-7---------7-7-7---------7-7-7---7-6-7-6-3-7---|---8-8-8-7---7-|
D|-8-8-8-8-8-8-8-8---8-8-8-8-8-8---8-8-8-8-8-8---9-7-7-6-4-8-8-|-8-8---8-8-8-8-|
A|-8-6-8-8-8-8-8-8---8-8-8-8-8-8---8-8-8-8-8-8---9-7-5-4-4-8-6-|-6-----6---8-8-|
E|-6---6-6-6-----6---6-6-6-----6---6-6-6-----6---7-5-----2-6---|-------------6-|

"beelzebub..."
e|-------------------5-5-----------------------------------------------------|
B|-8-8-------7-7-7-7-5-5-----------------------------------------------------|
G|-8-8-7-7-7-7-7-7-7-5-5-7-7-7-7-7-7-7-7-7-7-7-7-7-7-7-7-7-7-7-7-7-7-7-7-7-7-|
D|-8-8-8-8-8-7-7-7-7-0-0-8-8-8-8-8-8-8-8-8-8-8-8-8-8-8-8-8-8-8-8-8-8-8-8-8-8-|
A|-6-6-8-8-8-5-5-5-5-----8-8-8-8-8-8-8-8-8-8-8-8-8-8-8-8-8-8-8-8-8-8-8-8-8-8-|
E|-----6-6-6-------------6-6-6-6-6-6-6-6-6-6-6-6-6-6-6-6-6-6-6-6-6-6-6-6-6-6-|

rock
e|-------------------------------------------------------|---------------------|
B|-------------------------------------------------------|---------------------|
G|-------------------------------------------------------|-8-----------------6~|
D|-----------------------------------------------------8-|-8-8-8p6---6---------|
A|-6-------3-5-6-6-------3---6-------3-5-6-8-------5---8-|-6-8-----8---8p6/4---|
E|---3-4-6---------3-4-6---6---3-4-6---------5-6-8---8-6-|---6-----------------|

e|----------------------------------------------------------------------------|
B|----------------------------------------------------------------------------|
G|-----8---------3------------3---------------3---3---------------------------|
D|-8-8-8-6-6-4-3-3-/5-3-------3-----3h5p3-----3---3---------------------------|
A|-8-8-6-6-6-4-3-1------5-3---1-3h5-------5---1---1-6-------3-5-6-6-------3---|
E|-6-6---4-4-2-1------------1---------------1---1-----3-4-6---------3-4-6---6-|

e|---------------------------------------------------------------------|
B|---------------------------------------------------------------------|
G|---------------------------------3-----5---5h6-------------6---6-8-9-|
D|-----------------------------4h6---6h8---8-----------6-7-9---9-------|
A|-6-------3-5-6-8-------5h7h8-------------------6-7-9-----------------|
E|---3-4-6---------5-6-8-----------------------------------------------|

e|----------------------------------------------------------|-----------------------|
B|-------------------------------------------8-9--------6---|-------8-11-------8-11-|
G|---------------------3-7-5-7-5-7-8-10-8-10--------7-------|-----8----------8------|
D|-----------3-4-3-4-6---------------------------8----8---8-|---8----------8--------|
A|-----3-4-6-------------------------------------8----------|-----------------------|
E|-4-6-------------------------------------------6----------|-6----------6----------|

e|----------8-------------------------------15~~--8~-10-/6~|
B|--------8---8-9p8-8-9p8-6--8-8h9p8-----------------------|
G|------8----------------------------/12-\7----------------|
D|---10----------------------------------------------------|
A|---------------------------------------------------------|
E|-8-------------------------------------------------------|

"nothing really matters...' rake--| "..me"
e|-------------3---------------------------------4---------------8-10-6-10-4-|
B|-------8---------------8-------3-------8-----8-4---6---------8-----------4-|
G|-----5-----3---------5-------3-------5---5-8---4---5-------8-------------5-|
D|---5-----5-----5---5-------5-------5-----------6---6-----8---------------6-|
A|-6---------------6-------5-------6-----------------6---6-------------------|
E|---------------------------------------------------6-----------------------|

e|-----6----------------------------------------10-13-8-13----13----1-|
B|---6---11/9-9/8-8--11/-9--9/8-------------6--------------11----10-1-|
G|-7-----------------12/10-10/9-/12/9-7/5/3-------------------------2-|
D|------------------------------------------------------------------3-|
A|------------------------------------------------------------------3-|
E|------------------------------------------------------------------1-|


************************************

| / Slide up
| ~ Vibrato
| (n) Ghost note
| p Pull-off
| h Hammer-on
| \ Slide down

************************************
Tunning: Standard (E A D G B e)
Transposed down by a half step.

[Intro]
9/8:
* * * *
D#|-5-5-5-5---5-----5-5-5-5--22-------4-4-4-5---4-------5-5-5-5-0-0-------|
A#|-5-5-5-5---5-----4-4-5-4--20-------3-3-3-3---3-------5-5-7-5-3-2-------|
F#|-6-6-6-6---6-----4-4-6-4--22-------4-4-4-4---4-------6-6-7-6-4-2-------|
C#|-4-4-4-4---4-----4-4-4-4--21-------2-2-2-4---2---2-2---------6-2-------|
G#|-----------------------------------------------------0-----------------|
D#|-----------------------------------------------------------------------|

4/4:
* . . . * . . . * . . .
D#|-0-0-0-0---------------0---------5-----5----10----10-|
A#|-2-2-2-2-------2-2-2-3---------7-7---7---12----10----|
F#|-2-2-2-2-----2---2---------2-----7-7-----12----11----|
C#|-4-4-4-4---------5-----5---------0-------------------|
G#|-----------------0-----0-----------------------------|
D#|-----------2-----------------------------------------|

* . . . * . . . * . . . * . . .
D#|-------------9-\--0-0-2-0-----0-0-2-6-6-5---4-4-5---6-6-5---4-4-5---|
A#|-7-7-7-7---7-10\--3--------30-0-2-3-8-8-7---6-6-7---8-8-7---6-6-7---|
F#|-7-----7---7------1-----1-------0-2-8-8-7---6-6-7---8-8-7---6-6-7---|
C#|-9-----9----------------------4-------------------------------------|
G#|--------------------------------------------------------------------|
D#|-7----------------0-------------------------------------------------|
(an extra 1/8 beat is added to the second measure)

* . . . * . . . * . . .
D#|-2-2-2-2-----5---5-------4-------4-------7-------|
A#|-3---3---5---5---4-4-4-4-5-----0-0-----5-5-------|
F#|-2-------2-------5---5---7---7---7---7---7-------|
C#|-0-------2-------4---------------------------6h7-|
G#|---------4-4---4-----------7-----7---------------|
D#|-------------------------0---------0-------------|


[Verse]
* . . . * . . .
D#|---------2---0-----------2---0---|
A#|-2-----2---------2-----2---------|
F#|-2---2-----------2---2-----------|
C#|-2-2-------2---2---2-------2---2-|
G#|-0---------------0---------------|
D#|---------------------------------|
You can play right hand harmonics on those high notes.
Also during the verses as many times as possible.


[Verse]
* . . . * . . . * . . . * . . .
D#|---------2---0-----------4---2------------9---7-------------------7-|
A#|-22----2------------22---------22------------------7------------5---|
F#|-----2---------2-4-----2---------7-9-7-------------7-9-7----4-7-----|
C#|---2-------2-------4-------4-----9-----11-9---9-11-------11---6-----|
G#|-0------------------------------------------------------------------|
D#|-----------------2---------------7----------7------7--------0-------|

* . . . * . . . * . . . * . . .
D#|---------2-----0-4--22---4---2-2-5-5-5-5-5-----------------2---2-|
A#|-22----2-----2---2-----------------0---7---7---7-7-----7-3---3---|
F#|-----2-----------2-------------------7---7---76--4-4-7---0-------|
C#|---2-------2-------4---4---4---4-----------------6-----------4---|
G#|-0-------------------------------------------0-------------------|
D#|-----------------2---------------7-------6-------4-------3---2---|

* . . . * . . . * . . . \* . . .
D#|-22------2-----232-----2-/9---7-----------3---3-----0-0-2-233-3-35|
A#|-3---3---3---5---3---3---/7-----7-8--77-5-5---5-------2---2-------|
F#|-2---2---2---2---4-4-----/7---------9-------7---622---2---2-------|
C#|-0-0---0---0-2------------9-9---9---------0-------2---------------|
G#|-------------4---2----------------7---7-6-----4---0---0---0---0---|
D#|------------------------------------------------------------------|


* . . . * . . . * . * . . .
D#|-3-2---025-----02----------------------2----10----10----10---10-|
A#|-3-------5---5---3-----3---------3---3---12----10-----9----8----|
F#|-2-------6-6-----4---4---3-5-3-5-3-2-----12----11----10----9----|
C#|-0---0-----------4-4-----5-------0------------------------------|
G#|---------4-------2-------5--------------------------------------|
D#|-------------------------3--------------------------------------|


[Verse]
* . . . * . . .
D#|---------2---0-----------2---0---|
A#|-2-----2---------2-----2---------|
F#|-2---2-----------2---2-----------|
C#|-2-2-------2---2---2-------2---2-|
G#|-0---------------0---------------|
D#|---------------------------------|



[Verse]
* . . . * . . . * . . . * . . .
D#|---------2---0-----------4---2------------9---7-------------------7-|
A#|-2-2---2-----------2-2---------2-------------------7------------5---|
F#|-----2---------2-4---2-----------7-9-7-------------7-9-7----4-7-----|
C#|---2-------2-----4-----4---4-----9-----11-9---9-11-------11---6-----|
G#|-0------------------------------------------------------------------|
D#|-----------------2---------------7----------7------7--------0-------|

* . . . * . . . * . . . * . . .
D#|---------2-----0-4--22---4---2-0-5-5-5-5-5-----------------2---2-|
A#|-2-2---0-02--2---2--------------7--0---7---7---7-7-----7-3---3---|
F#|-----2--2--------2-------------------7---7---76--4-4-7---0-------|
C#|---2-------2-------4---4---4---------------------6-----------4---|
G#|-0-------------------------------------------0-------------------|
D#|-----------------2---------------7-------6-------4-------3---2---|

* . . . * . . . * . . . \* . . .
D#|-22------2-----232-----2-/9---7-----------3---3-----0-0-2-233-3-35|
A#|-3---3---3---5---3---3---/7-------8--77-5-5---5-------2---2-------|
F#|-2---2---2---2---4-4-----/7-------9-----4---7---622---2---2-------|
C#|-0-0---0---0-2------------9-9---9-9-------0-------2---------------|
G#|-------------4---2----------------7---7-6-----4---0---0---0---0---|
D#|------------------------------------------------------------------|


[Solo]
(tabbed with less dense timing)
* . . . * . . .
D#|-3-------2---0---5-----------2---7---------------7---9-10-7--------|
A#|---------------3---------2-------7-----------7---7--------7--------|
F#|-----2---------------2-----------7-------7-------7---------------7-|
C#|-0-----------------------------------9--------------------9---11---|
G#|-----------------4-------------------------------------------------|
D#|---------------------------------7---------------7--------7--------|
the middle of the solo is transposed down.

* . . . * ._3__ __3__ ._3__ __3__ .
D#|-0---------------0-2-3-5-7-------5---3---2-3-2~---2----------------------------|
A#|-0-----------0-------------------2--------------5---5-3-2-3-2~----2------------|
F#|-0--------------------------------------------------------------4---4-2-2------|
C#|---------2---1---0---------------2---------------------------------------------|
G#|-------------------------4-------0--------------0-----------0-----------0------|
D#|-0-----------------------------------------------------------------------------|
~ : trill-ornament (p-h)
The rhythm is just approximately transcribed.


* . * .
D#|-2--------------2-3-5----------------2-3-5-7-------------------------------|
A#|-3--------2-3-5----------------2-3-5-------7-----------2-3-----2-3-----2-3-|
F#|-2--2--4-----------------2--4--------------7---------------4-------4-------|
C#|-0---------------------------------------------------------4-------4-------|
G#|----------------------4------------------------------------2-------2-0-----|
D#|-------------------------------------------7-------3-2-1-2-------------2-0-|

* . . . * .__3___ . . *
D#|-0-------0---2---3-------12-----------8-8----8--8--8-----------------4
A#|-0-------0---0---0--------0-------8---8-8----------------------------4
F#|-0-------0---0---0--------0-------9------------------------5--h6p5---5
C#|-2-------2---1---0---------------10--------------------------------8-6
G#|---------------------------------------------------------------------6
D#|--------------------------9-------8----------8--7--6-------5---------4



"Opera" section:
(double time feel)
* . . . * . . .
D#|-4-----------------------------|
A#|-4---4---4---4---4---4---4---4-|
F#|-5---5---5---5---5---5---5---5-|
C#|-6---6---6---6---6---6---6---6-|
G#|-6-----------------------------|
D#|-4-----------------------------|

* . . . * . . . * . . . * . . .
D#|--------------------------------------------------------------------|
A#|-6---4-4-3---4---6---4-4-3---4-4--9---4-4--9---4-4-3-3-4----9---4---|
F#|-6---5-5-4-4-5-5-6-6-5-5-4---5-5-10---5-5-10---5-5-4-4-5---10---5---|
C#|-6---6-6-6---6---6---6-6-6---6-6-11---6-6-11---6-6-6-6-6---11---6---|
G#|----------------------------------------------------------(11)------|
D#|--------------------------------------------------------------------|

* . . . * . . . *
D#|-----------------2-2-2-2---------4
A#|-5-5-3-5-6---6---4-4-4-4-9---9---4
F#|-5-5-4-5-4---4---4-4-4-4-7---7---5
C#|-5-5-5-5-5---5-----------9---9---6
G#|-------------------------7---7---6
D#|-3-3-3-3-3---3---2-2-2-2---------4

* . . . * . . . * . . .
D#|-4---11-11-12-11-------------11-11-12-11-------------11-11-12-11-9-7-6
A#|-4-------------------------------------------------------------------|
F#|-5-------------------------------------------------------------------|
C#|-6-------------------------------------------------------------------|
G#|-6---------------11-11-12-11-------------11-11-12-11-11-11-12-11-9-7-6
D#|-4-------------------------------------------------------------------|

* . . . * . * . . . * . . .
D#|-6---5-5-5---------------6---5---4---5---6---5---4---5---|
A#|-----------7-------0-----6---5---4---5---6---5---4---5---|
F#|---------------7---------7---6---5---6---7---6---5---6---|
C#|---7-----------------7---8---7-7-6---7---8---7-7-6---7---|
G#|-6-------------------------------------------------------|
D#|---------------------------------------------------------|

* . . . * . . . * . . . * . . .
D#|-10---10-10-10---10---10-10-10---10-10-10---7---7-10-5---5---4---4-4-5---------|
A#|-12---10-10--9---10---12-12-10----9--9-10---8---8-10-3---3---3---3-3-2---10-10-|
F#|-12---11-11-10---11---12-12-11---10-10-11---0---0----2---2---4---4-4-2---------|
C#|--0----0-----0----0----0-----0----0-----0---0---0----4---4-2-------------------|
G#|---------------------------------------------------------------------0---------|
D#|-------------------------------------------------------------0---0-0-----------|

* . . . * . . . * . . .
D#|----10----10----10---10-6---5---4---5---6---5---4-------|
A#|-12----10----9-----8----6---5---4---5---6---5---4-------|
F#|-12----11----10----9----7---6---5---6---7---6---5-------|
C#|------------------------8-8-7---6-6-7---8-8-7-7-6---7---|
G#|----------------------------------------------------0---|
D#|----------------------------------------------------5---|


. * . . . * . . .
D#|-----------------------------10-10-10-|
A#|-----------------5-5-7-8-7-5-10-10-10-|
F#|---7-------7-----6-6-7-9-7-6-11-11-11-|
C#|7---0---7---0--------------------------|
G#|0---5---0---5-----0-0-0-0-0-0----------|
D#|5-------5------------------------------|

* . . . * . . . * . . . * . . .
D#|---------------------------10-10-10---------------------------10-10-10-|
A#|---------------5-5-7-8-7-5-10-10-10---------------5-5-7-8-7-5-10-10-10-|
F#|---------7-----6-6-7-9-7-6-11-11-11---------7-----6-6-7-9-7-6--7--7--7-|
C#|-----7---0---7--------------------------7---0---7----------------------|
G#|-----0---5---0-0-0-0-0-0-0--------------0---5---0-0-0-0-0-0-0----------|
D#|-----5-------5--------------------------5-------5----------------------|

* . . . * . . . * . . .
D#|-----------10-10-10-----------------5---------------|
A#|-5-7-8-7-5-10-10-10-5-7-8-7-5---------6-------------|
F#|-6-7-9-7-6--7--7--7-6-7-9-7-6-7-7-5-------8---5-----|
C#|------------------------------------------------7---|
G#|-0-0-0-0-0----------0-0-0-0-0-----------------------|
D#|----------------------------------------------------|


* . . . * . . . * . . . * . . .
D#|-2---3---5---7---6---10--11-------------------5-5-7-5-3-2-0-------|
A#|-3---5---7---9---5---6------------------------7-7-8-7-5-3-2-------|
F#|-4---2---7------(6)------12-----------------------0---0-2---------|
C#|----------------(4)--8------7-7-7-9-7-7-7-9-7-0-0---0-----2---7---|
G#|-2---0---5------------------------------------------------0---0---|
D#|-------------9---2---6---11---------------------------------------|
You can strum the chords:
Bm A7 D Db7 Gb7 Bb Eb


. * . . . * . . . * . . . * . . .
D#|---5-----5-7-----7-4---4---2---2---3-----2-0---3---7-----5-0-------|
A#|---7-----7-0-----0-6---6---2---2---2-------2-------5-------8---7---|
F#|---7-----7-0-----0-4---4---2---2---0-------0-------6-------6-------|
C#|7---0-----0---------------------------------------------------------|
G#|0-------------------4---------------0-------0-------0-----------0---|
D#|-----------3-----3---7-5-4-2---2-----------------------------------|

* *
D#|17--...-----------------------------|
A#|14--...-----------------------------|
F#|-0--...-----------------------------|
C#|14--...-----------------------------|
G#|-0--...-----------------------------|
D#|------------------------------------|
strumm fast


"Rock" section:

On the original record this section is in 4/4
(beats marked below the staves), but triplets
dominate the lead tune creating an alternate
6/4 meter marked below the staves. You can simplify
this part by playing only every second 4/4 (D) chords
(later: 'A' bass). It's easier to learn this section
with 6/4 meter in mind.


* . . . . . * . . . . .
D#|-2-----2-----2-----2-----2-----2-----2-----2-----|
A#|-3-----3-----3-----3-----3-----3-----3-----3-----|
F#|-2-----2-----2-----2-----2-----2-----2-----2-----|
C#|-0-------------------0---0-----------------------|
G#|-------------0---2-4-----------------0-2-0-------|
D#|-----2---3-------------------2---3---------------|
* . . . * . . .


* . . . . . * . . . . .
D#|-2-----2-----2-----2-----0-----0-----0-----0-----|
A#|-3-----3-----3-----3-----0-----0-----0-----0-----|
F#|-2-----2-----2-----2-----1-----1-----1-----1-----|
C#|-0-------------------0---2-----------------------|
G#|-------------0---2-4-------------0---2-4-2-------|
D#|-----2---3-------------------4-------------------|
* . . . * . . .


* . . . . . * . . . . .
D#|-----3---3---3---2---2---2---0---0---------------|
A#|-------------2-----------2-----------3---3-3-----|
F#|-2-----------2-----------2-----------2-----2-----|
C#|-2-----------------------------------0-----0-----|
G#|-0-----0-----0-----0-----0-----0-----------------|
D#|-------------------------------------------------|
* . . . * . . .


* . . * . . . . .
D#|-------0-----------------------------|
A#|-2---3-2---------------------1-------|
F#|-2-----2-----2---0-2p0---------------|
C#|-2---------------------2-------------|
G#|-0-----0-----------------3-----------|
D#|-------------------------------------|
* . * . . .


* . . . . . * . . . . . * . . . . .
D#|-----3---3---3---2---2---2---0---0---------------3---5-7-----------------|
A#|-------------2-----------2-----------3---3---3---0-----0-----3-----------|
F#|-2-----------2-----------2-----------5-----5-----0-----0-----0-----------|
C#|-2-----------------------------------4-----4-----------------------------|
G#|-0-----0-----0-----0-----0-----0-----5-----5-----------------------------|
D#|-------------------------------------------------3---------------3---2---|
* . . . * . . . * . . .


* . . . . . * . . . . .
D#|-3-----------3-----------2-----0-----------------|
A#|-0-----------0-----------2-----2-----------------|
F#|-0-----------0-----------2-----2-----------------|
C#|-------------------------------------4---2---0---|
G#|-------------------------0-----0---------------2-|
D#|-0-----0-----0-----0-----------------------------|
* . . . * . . .


* . . . . . * . . . . .
D#|-3---3---3---3---3---2---2-----0-----------------|
A#|-0-----------0-----------2-----2-----------------|
F#|-0-----------0-----------2-----2-----------------|
C#|-----------------------------------------2-4p2---|
G#|-------------------------0-----0----/4---------4-|
D#|-0-----------0-----------------------------------|
* . . . * . . .


* . . . . . * . . . . .
D#|-------------------------------------------------|
A#|-3---3-----3-5-----------3---3---3-3-5-----------|
F#|-4-----------6-----------4-----------6---7---6---|
C#|-5-----------7-----------5-----------7-----------|
G#|-------------0-----------------------0-----------|
D#|-0-----------------------0-----------------------|
* . . . * . . .


* . . . . . * . . . . .
D#|-2-----2-----2-----2-----2-----2-----2-----2-----|
A#|-3-----3-----3-----3-----3-----3-----3-----3-----|
F#|-2-----2-----2-----2-----2-----2-----2-----2-----|
C#|-0-------------------0---0-----------------------|
G#|-------------0---2-4-----------------0-2-0-------|
D#|-----2---3-------------------2---3---------------|
* . . . * . . .


* . . . . . * . . . . .
D#|-2-----2-----2-----2-----0-----0-----0-----0-----|
A#|-3-----3-----3-----3-----0-----0-----0-----0-----|
F#|-2-----2-----2-----2-----1-----1-----1-----1-----|
C#|-0-------------------0---2-----------------1-2---|
G#|-------------0---2-4-------------0---2---4-------|
D#|-----2---3-------------------4-------------------|
* . . . * . . .

* . . . * *
D#|-------------------------------------------------------------------------|
A#|-----1-------0-----0-1---------------1---1-3-4---------------------------|
F#|---0-2---0-2-0---2---1---------0-1-3---3---------------------------0-2---|
C#|-3---3-------0-------1---0-1-3---------------------------0-2-3-2-3-------|
G#|-------------------------1-----------------------2-0-2-3-----------------|
D#|-------------------------------------------------3-----------------------|

* *
D#|-----------------------------------------------------------0---|
A#|---------------------------------------------------0---2-------|
F#|---------------------0---------------------0---0-2---2---2---2-|
C#|-----------0-2-0-2-4-------------0-2-0-2-4---4-----------------|
G#|-4-2-4-2-4---------------2-4-2-4-----------0-------------------|
D#|-5-------------------------5-----------------------------------|



"Ballad 2":
* . . . * . . . * . . .
D#|---------5---------------5---------------7-------|
A#|-3---3/7-7-------2---2/5-5-------3---3/7-7-------|
F#|-2-2-----7-------2-2-----6-------4-4-----7-------|
C#|-0---------------2---------------4---------------|
G#|-----------------0---------------2---------------|
D#|-------------------------------------------------|

* . . . * . . . * . . .
D#|-----------------------0---------0-----232-----454
A#|-2-------3-------2-------3-------2-------3-----676
F#|-3-------4-------3-------4-------2-------2-------|
C#|-4-------4-------4-------4---------------0-------|
G#|-1-------2-------1-------2-------0---------------4
D#|-----------------------------------3-2-0---------|


tab-timing halved
* . . . * . . . * . . . * . . .
D#|-4-----4-5---------------2-------3-2-------------2---------------|
A#|-6---7-6-7-------0-----023-----3-3---3---2-------3-5-3-2---------|
F#|-----6---6-------0-----022---2---4-------2-2-----4-------2-------|
C#|---------4-------0---0-----0-----------4-4---------------4-------|
G#|-4-----------------2-------------2---------------2---------------|
D#|-----------------3-----------------------2---------------2-------|

* . . . * . . .
D#|-2-----3---------2-0-0-----------|
A#|-3-3-5---3-------3-----3-3-------|
F#|-4-------3-3-----4---------4---6-|
C#|---------5-------5---------------|
G#|-2---------------0---------------|
D#|---------3-----------------------|


[Outro]
* . . . * . . . * . . . * . . .
D#|-5-----5----9----9-5-----5--7-9-7-9-5-----5-5-3-3-2-2-----2-5-3-3-2-|
A#|-----7---12---12---7---7----9---9---5---5---5-------4---4---4-------|
F#|-7-7-----12---12---7-7-----10-------6-6-----5-------4-4-----5-------|
C#|-0-----------------0------------------------------------------------|
G#|-----------------------------------(4-------3-------2)--------------|
D#|--------------------------------------------------------------------|

* . . . * . . . *
D#|-2-----------0---------------0---0----------|
A#|-4-4-------------2-2-0-0---------0----------|
F#|-4---4-2-1-------2-2-1-1-3---2---1----------|
C#|---------2-2---2---------5---4---2----------|
G#|-2-------------------------------2----------|
D#|---------0-----------------------0----------|



Some parts of this arrangement are hard to play, or require tricky fingering.
The outro is easier, if you are not advanced player, start with that.
This arrangement can be modified/simplified almost anywhere if you feel
it's easier for you.


************************************

| (n) Ghost note
| h Hammer-on
| p Pull-off
| / Slide up
| \ Slide down
| ~ Vibrato


************************************
Tunning: Standard (E A D G B e)
Artist: Queen
Song: Bohemian Rhapsody

[Intro]
e|-5--5--5--5---5--5--5--5--5--5-----7----4--4--4--5--4-------|
B|-7--7--7--7---7--7--7--7--7--7-----7----5--5--5--7--5-------|
G|-9--9--9--9---9--8--8--8--9--8--6--8----7--7--7--7--7-------|
D|------------------------------------------------------------|
A|-------------------------------------------------------7--7-|
E|------------------------------------------------------------|

e|-5--5--5--5----------------------2------------------0-----------------------10----10-|
B|-5--5--7--5--7--5----2--2--2--2----2-------2--2--3--2--2---10--------10--12----10----|
G|-6--6--7--6--7--6----2--2--2--2------2--2--0--0--4--0--2---11-----11-----12----11----|
D|-------------9--7----4--4--4--4---------4--------5---------12--12--------------------|
A|-------------------------------------------0-----------------------------------------|
E|---------------------2---------------------------------------------------------------|
2x
e|-----------------9--0--0--2-----0--2/4-|-6--6--5\--4--4--5\-|
B|-7--7--7--7---7-----0--------3--0------|-6--6--5\--4--4--5\-|
G|-7------------------1------------------|-7--7--6\--5--5--6\-|
D|-7-------------------------------------|--------------------|
A|---------------------------------------|--------------------|
E|-7------------------0------------------|--------------------|

e|-2--2--2--2--0h2p0---5---5--5--5--5--4---------|
B|-3-------------------2---4--4--4--4-----3------|
G|-2-------------------2---------------4--4--1/2-|
D|-0-----------------------4--4--4--4------------|
A|-------------3-----------3---------------------|
E|-------------------------------------0---------|

[Verse]
2x 2x
e|-----------2-------|----------4----2---|----------0---------|----7-|
B|--------2------5---|-2-----2---------2-|--0h2--3-----3--2-0-|------|
G|-2----2----------2-|-----2-------2-----|-------0-----0----1-|-7h9--|
D|----2--------2-----|---4------4--------|------------------2-|------|
A|-0---------0-------|-------------------|-------2-----2------|------|
E|-------------------|-2-----------------|--------------------|------|

e|-----------2---------------------4----2----0--5--5--5--5--5------------------0-|
B|--------2------5---2h5--2-----2---------2-----7--------7----7--2h3p2-0----2--1-|
G|-2----2---------------------2-------2---------7-----7-----7----2----------2--2-|
D|----2--------2---2--------4------4-----------------------------4--------4------|
A|-0---------0---------------------------------------------------0---------------|
E|------------------------2---------------------7-----------6------------------0-|

e|-----------2--2------------0---2h3----------2--|
B|-0---------3-----3------------------3----3-----|
G|-0---------2-------2----2--------------4-------|
D|-2--4--2---0---------0----------------4--------|
A|---------------------------4--------2--------2-|
E|-3--2------------------------------------------|

e|-3--2-2--0---0----------------2-2--3--3--5--3--2-----0h2--5------2-|
B|-0-----------0----------5--5----------2-----------3------------2---|
G|-0----------------2--2-----2----2-----2--------2-------------2-----|
D|-2-------1---0------------------------------0----------------------|
A|----------------4----0-----0----0-----0-------------------4--------|
E|-------------------------------------------------------------------|

e|--------------------------------------10----10----10---10-|
B|-3-----------------------------10--12----10-----9----8----|
G|-----4--2-2--3--5--3--------11-----12----11----10----9----|
D|---4---------5--------0--12-------------------------------|
A|-2-----------5--------------------------------------------|
E|-------------3--------------------------------------------|

(repeat verse until *)

e|-7-----7---9/10---7--9/10---12--------12--14--15-17-19---17-15-14-15-14h15p14p12-|
B|-7--7--7----------7----------0--0--12--0-------------0---------------------------|
G|-7--7--7----------7----------0--0------0-------------0---------------------------|
D|-9--9--9----------7----------9---------------------------------------------------|
A|-9-----9----------9---------10---------------------------0-----------------------|
E|-7-----7----------7----------0--0------------------------------------------------|

e|-14-12-10-12-10h12p10p9--9--10--9h10p9----9------------2------------2-3-5-|
B|---------------------------------------12---12-10-10---3------2-3-5-----2-|
G|-------------------------------------------------------2--2-4-----------2-|
D|-------------------------------------------------------0------0---------2-|
A|-0-----------------------0-------------------------0--------------------4-|
E|--------------------------------------------------------------------------|

e|-5-----------2-3-5--7------9/10--7--9/10-7--9/10--12-------------12-------------|
B|-2-----2-3-5--------7------------7-------7---------0------5-7-8------8----------|
G|-2-2-4--------------7---7--------7-------7---------0--------------9--5--5--5--5-|
D|-2------------------7---7--------7-------7---------9----------5------5--5--5--5-|
A|-4------------------9---9--------9-------9--------12---7--6---5-----------------|
E|--------------------7---7--------7-------7---------0----------------------------|

e|-8--8--8----|
B|-5--5--5----|
G|-5--5--5--5-|
D|------------|
A|----------0-|
E|-8--7--6----|

e|-------------------------------------------------------------------|
B|-----4--4--4--4--4--4--4--6--4--4--3--3--4--4--6--6--4--4--3--4--4-|
G|-----5--5--5--5--5--5--5--6--5--5--4--4--5--5--6--6--5--5--4--5--5-|
D|-6---6--6--6--6--6--6--6--6--6--6--6--6--6--6--6--6--6--6--6--6--6-|
A|-------------------------------------------------------------------|
E|-4-----------------------------------------------------------------|

e|--4--------4-----------------4--------------------------2--2--2--2-----3--4-|
B|--6--4--4--6--4--4--3--3--4--6--4---5--5--3--5---6--6---2--2--2--2--4--4--4-|
G|--6--5--5--6--5--5--4--4--5--6--5---5--5--4--5---4--4---3--3--3--3--3--3--5-|
D|-----6--6-----6--6--6--6--6-----6---5--5--4--5---5--5---------------5-----6-|
A|--------------------------------------------------------------------6--6--6-|
E|------------------------------------3--3--3--3---3--3---2--2--2--2--------4-|

e|-11-11-12p11-------------11-11-11-12p11---------------11-11-12-11-9-7-6---4--4-|
B|-------------------------------------------------------------------------------|
G|-------------------------------------------------------------------------------|
D|------------------------------------------------------------------------7------|
A|-------------11-11-12p11----------------11-11-12p11---11-11-12-11-9-7-6--------|
E|-------------------------------------------------------------------------------|
Harm H H
e|---------------------------------------------------7--5-5--4--5--7-7--5--4-4--5-|
B|--------------0------------------------------------0--7-7--6--7--0-0--7--6-6--7-|
G|-----11--------------------------------------------0--7-7--4--7--0-0--7--4-4--7-|
D|-(7)----(12)-----------8--7-7--6--7--8--7-7--6--7--0-------------0-0------------|
A|-----------------(12)------------------------------5-------------5-5------------|
E|-----------------------6--5-5--4--5--6--5-5--4--5-------------------------------|
mute
e|-7--7/9---5--5-5--4--4-4-4--5------------10----10---10---10---------------------------------|
B|-0--0-----7--7-7--3--3-3-3--2--10-10--12----10----9----8-----6--5-5--4--5--6-6--5-5--4-4--5-|
G|-0--0-----7--7-7--4--4-4-4--2---------12----11---10----9-----7--6-6--5--6--7-7--6-6--5-5--6-|
D|-0--0-------------2--2-2-2--2--------------------------------8--7-7--6--7--8-8--7-7--6-6--7-|
A|-5--5-------------2--2-2-2--0---------------------------------------------------------------|
E|-------------------------------------------------------------6--5-5--4--5--6-6--5-5--4-4--5-|
4x
e|---------------------10-10-10-|---5------------------5---9--10-|
B|--------7-5-7-8-7-5--10-10-10-|-----6----------6--5--6--10---7-|
G|--------7-6-7-9-7-6--11-11-11-|-5-----8--6--5--6--5--5---9---7-|
D|------------------------------|----------8--6--6--5--7-------0-|
A|-0/5-0------------------------|----------8--6--4--3--8---0-----|
E|------------------------------|----------6--4------------------|

e|---------------------5-5--7-5--3--2--0--5--10-10--10--10---9--9--9--9--14--14-|
B|---------------------7-7--8-7--5--3--2--5---7--7---0---0---9--9--9--9---------|
G|-2-2--4p2--2-2--4p2------------------2--6---7--7---0---0--10-10-10-10--14--14-|
D|---------------------0-0--0-0--0--0-----7---0--0------------------------------|
A|-------------------------------------0--0------------------------------16--16-|
E|-----------------------------------------------------------9--9--9--9--14--14-|
8x
e|-3--3-3-3--2--2--7--7-7-7--5--5--|-17-17-17-|
B|-2--2-2-2--2--2--5--5-5-5--5--5--|-14-14-14-|
G|-2--2-2-2--2--2--6--6-6-6--6--6--|-14-14-14-|
D|-2--2-2-2--2--2--7--7-7-7--7--7--|-14-14-14-|
A|-0--0-0-0--0--0--0--0-0-0--0--0--|-0--0--0--|
E|---------------------------------|----------|
3x
e|-2------------|--0-----------------------3-3-3--2-2-2---------------|
B|-3----------2-|3-0---------0-2-0---------2-2-2--2-2-2--5-5-3--3---3-|
G|-2----0-2-4---|--1--1---2-------------2--2-2-2--2-2-2--2-2-2--2---2-|
D|-4--4---------|--2--------------------2------2------2--2---4--4-4-4-|
A|-0------0-----|--2--------------------0------0------0---------------|
E|--------------|--0----0----0------0---------------------------------|

e|-3--7-----------2---3-3-3--3-3-3--3-3-3--2--0-------------------3----3---3--2--2-|
B|-3-----3--------0------------------------2-------------------0--0----0---0--0--0-|
G|-4-----4--------0------------------------2-------------------0--0----0---0--0--0-|
D|-5-----5--5--4--2------------------------2-----2h4p2---------2-------------------|
A|-5-----5--------2------------------------0--0--0------4p2p0--2-------------------|
E|-3-----3--3--2--0---0------0------0--------------------------0-----0---0---0-----|

e|-2--0-------------------------------------------------------------------------|
B|-2-------------------3--3-3-3--3/5-----3--3-3-3--5--3---2---3-----------------|
G|-2-------------------0-----------------0--------------------2-------0--2--2h4-|
D|-2---------2--4p2----2-----------------2--------------------4--4-0------------|
A|-0--0--2h4--------4--2---------0----0--2---------0----0----------------0--0---|
E|---------------------0--0--------------0--0-----------------------------------|

e|-------------------------------------0----------------0---------------------|
B|-3----------------3-------------2-3--0---------0--2-4-----------------------|
G|-2-------2h4p2----2-------2--4-------1--1----2-------------0--2--4--2--4--5-|
D|-4--4-0-----------4--4-0-------------2------------------3-------------------|
A|---------0-----0----------0-----0----2------------------------0--2--0--2--3-|
E|-------------------------------------0----0----0----0---1--3----------------|

e|-----------------------------------------------------------------------2---3-|
B|----------------------------------------------------------2-3p2h3-5-3-5--5---|
G|-------------------------7-8---------------------0-2--2h4--------------------|
D|--------6----6--8-6-8-10-----------0---0-2-0-2-3-----------------------------|
A|-6h8h10---10-----------------0h2h3---3----------------0----------------------|
E|-6---------------------------3-----------------------------------------------|

e|-----------------------------------0---|
B|-------------------------------2-------|
G|----------------------0---0--2---2---2-|
D|-------0---0--2h4p2-4---4--------------|
A|-0h2h4---4----------------0------------|
E|-5-------------------------------------|

[Outro]
e|-2------2--5-------------5--------------7--2-------2---------------2h3-2-5-|
B|-3----3----3--5----2--5--2-----------7--7--2--5-3--2---5--3--2---------3-7-|
G|-2--2------2--2--2-------2---7-----7----7--3----4--3------4--2-0-------2-5-|
D|-0---------0-----------------9--9-------9--4----4--4------4------4-2---0---|
A|--------------4----------4---9----------9--4----2--4------2--0-------------|
E|-----------------------------7----------7--2-------2-----------------------|

e|-4-----4--5---------------------------------3-2---------2----2----0-2-----|
B|-6--7-----2----------0--------0-2-3-------3-----3------------3--3-----3---|
G|-4-----4--2-------2--0-----0--0-2-2-----2-----------2-2---2--4--------3-3-|
D|-6--7-----4----4-----0--0---------0--4------------4---4---4--4--------5---|
A|-4--4--------4------------------------------2---2------------2----2---5---|
E|----------2----2-----3-----3------------------------2-----------------3---|

e|-2-0-0--------------------------9----9----------------7-9--7-9--5------5-|
B|-0-----3-3-0--2--3--------10-12---12---10--------10---9----9----5----5---|
G|-0---------------------11----12---12---11-----11-----10---10----6--6-----|
D|-0---------------0--12-----------------12--12----------------------------|
A|-0-----------------------------------------------------------------------|
E|----------------------------------------------------------------5--------|

e|-5--3--3--2--2-------2--5--3--3--2-----------0----0-------------------0-----|
B|-5-----------4----4-----4-----------7\4-------------------------------2-----|
G|-------------4--4-------2---------------4\2--1--1---1--2--2--1--1--0--2---1-|
D|-------------------------------------------------------2-----2-----2------2-|
A|-3-----------2-----------------------------------------4-----2-----1------2-|
E|---------------------------------------------0------------------------2---0-|

[Intro]
Is this the real life -
Is this just fantasy -
Caught in a landslide
No escape from reality
F#m A D
Open your eyes Look up to the skies and see
Bm7 E
I'm just a poor boy, I need no sympathy
Bb A Ab A Bb A Ab A
easy come, easy go, little high, little low
D A/C# Cdim E7/B E7/D Bb
Any way the wind blows, doesn't really matter to me to me.

[Verse 1]
A F#m
Mama just killed a man
Bm Bm7 E
put a gun against his head, pulled my trigger, now he's dead
A F#m Bm F#5/A# D/A Bbdim
Mama life had just begun, but now I've gone and thrown it all away
D A/C# Em B/D# G/D C#dim A A6 A7 D
Mama Oooo didn't mean to make you cry, if I'm not back again this time tomorrow,
A/C# Bm Gm D
Carry on, carry on as if nothing really matters.

[Verse 2]
A F#m
Too late, my time has come
Bm Bm7 E
Sent shivers down my spine, body's achin' all the time,
A F#m
Goodbye everybody, I've got to go,
Bm F#5/A# D/A Bbdim Amaj7 D/A
Gotta leave you all behind and face the truth.
D A/C# Bm Em B/D# G/D C#dim A A6 A7
Mama Ooo I don't want to die, I sometimes wish I'd never been born at all.

[Verse 3]
C#/G# Bb Bbdim Ab Db/Ab Ab Abdim
I see a little silhouetto of a man
Ab Db/Ab Ab Db/Ab Ab Abdim Ab Db/Ab Ab
Scaramouche Scaramouche will you do the fandango?
C/G G C/G G C/G Db7 Ab
Thunder bolts and lightening very very frightening me
Galileo Galileo Galileo Galileofigaro Magnifico oh oh oh
Bb A Ab A Bb A Ab A
I'm just a poor boy nobody loves me
G/D D Ddim D G/D D Ddim D
He's just a poor boy, from a poor family
G D/F# E7 A
spare him his life from this monstrosity
G/D D Bdim A7sus
Bb A Ab A Bb A Adim
Easy come easy go will you let me go?
A5 D A5 D Asus A Asus A
Bismillah NO, we will not let you go
Let him go
A D A Asus A Asus A
Bismillah we will not let you go Let him go
A D A Asus A Asus A
Bismillah we will not let you go Let him go
Asus A Asus A Asus A Asus A
will not let you go let me go will not let you go
let me go oh oh oh oh oh
Ab Db C F A5 D5 D A D A
no no no no no no no Oh mamamia mamamia mamamia let me go
D G C#7 F#m A5
Beelzebub has a devil put aside for me for me for me

[Verse 4]
D F
So you think you can stone me and spit in my eye -
So you think you can love me and leave to die -
Oh Baby - Can't do this to me baby -
Just gotta get out - just gotta get right outta here -

[Outro]
Bm F#m Bm F#m
Nothing really matters, anyone can see
Bm Gm G/A D G/D Eb
nothing really matters, nothing really matters to me
Ddim A/C# Cmaj13 B Cdim B E
A E Edim B7sus
Any way the wind blows
Song info
Bohemian Rhapsody
Queen
2001
  • Rock
  • Classic Rock
  • Pop Rock
Alternative tracks
Similar songs
Have A Cigar - Pink Floyd
Barracuda - Heart
Hearts - Marty Balin
Nothing But Love - Mr. Big
Brick in the wall - Pink Floyd

Hi! Hope you enjoy backing track experience.
If you want to help us in the development of the project, feel free to donate!