Dont Stop Me Now - Queen
00:00 / 00:00
Tabs and lyrics
Tunning: Standard (E A D G B e)
QUEEN: DONT STOP ME NOW JAZZ / 1978
guitar solo
|-------------------------------------------------------------------------------|
|---------10v-------------10v--10v----------------------------b11~-10-----------|
|-12b14---------14r_12p10------------14r12_p10-12-10-9-10v-------------12--10---|
|-------------------------------------------------------------------------------|
|-------------------------------------------------------------------------------|
|-------------------------------------------------------------------------------|

|----------------------------------------------------------------------------------------|
|------------------------------------11b13v---13r11p10-b13---b13---13r11p10-11-10----10--|
|-12b14---b13--b14--b13--14r12----------------------------------------------------12-----|
|------------------------------10--------------------------------------------------------|
|----------------------------------------------------------------------------------------|
|----------------------------------------------------------------------------------------|
*
|------------------------------------------------------------|
|-11--10-----------------------------------------------------|
|----------12---10---12b14--12--b14--12--b14--12--14r12p10v--|
|------------------------------------------------------------|
|------------------------------------------------------------|
|------------------------------------------------------------|

|--------------------------------------------------------------------------------------------|
|--------------------------------------------------------------------------------------------|
|----------------------------------------10h12p10----10---10h12p10----10---10h12p10----10v\~~|
|-------------------------------------------------12---------------12---------------12-------|
|-10--12r10-8---8----10/12--10--10--8--------------------------------------------------------|
|-------------------------------------10-----------------------------------------------------|

|------------------------|-20-20-20-20-20-20-20-20-|
|-b15-b15-b15-b15-b15v~~-|-22-22-22-22-22-22-22-22-|
|------------------------|-------------------------|
|------------------------|-------------------------|
|------------------------|-------------------------|
|------------------------|-------------------------|


* this part on the live killers version:
|-------------------------------------------------|
|-13p10h13p10-------------------------------------|
|-------------12p10h12p10-12p10-----------12-10---|
|-------------------------------12---10-----------|
|-------------------------------------------------|
|-------------------------------------------------|


Tunning: Standard (E A D G B e)
-------------------------------------------------------------------------------
Dont stop me now - Queen
-------------------------------------------------------------------------------
Tabbed by: victorschultz
E-mail: victorschultz111@gmail.com

Tuning: Standard (EADGBE)

Notice:
You can see what pbs is in the legend. I made it because i couldn't seem to
make the right sound without making a new one. Basically you just pick a
note again after you bended it.
Additionally i'm not sure if the part after the solo is correct, because
you can't hear it properly.

Solo
alright
e|--------------------------------------------------------------------|
B|-10---10---8------10---10--------------8--------------11--10--8-----|
G|-------------10-9-----------10--9--10-----10--9--10--------------10-|
D|--------------------------------------------------------------------|
A|--------------------------------------------------------------------|
E|--------------------------------------------------------------------|

e|--------------------------------------------------------------------------|
B|--8b10--8-10-8-10p8------11b13---pbs13---11p10p8--11b13---pbs13---11p10p8-|
G|--------------------------------------------------------------------------|
D|--------------------10~---------------------------------------------------|
A|--------------------------------------------------------------------------|
E|--------------------------------------------------------------------------|

e|---------------------------------------------------------------------------|
B|--11-10-8-10---11--10--8------8b10--8-10-8-10-8-10p8-----------------------|
G|--------------------------10-------------------------10--------------------|
D|---------------------------------------------------------------------------|
A|---------------------------------------------------------------------------|
E|---------------------------------------------------------------------------|
Solo end

Ooh
I'm burning through the sky yeah! Two hundred degrees
e|--------------------------------------------------------|
B|------------------------3---3--3--3--3------------------|
G|--------------------------------------------------------|
D|--------------------------------------------------------|
A|--------------------------------------------------------|
E|-1---3--------------------------------------------------|

That's why they call me Mister Fahrenheit I'm trav'ling at the speed of light
e|-----------------------------------------10-10-10-10-10-10-----------------------------------|
B|---------------------------------------------------------------------------------------------|
G|---------------------------------------------------------------------------------------------|
D|---------------------------------------------------------------------------------------------|
A|---------------------------------------------------------------------------------------------|
E|---------------------------------------------------------------------------------------------|

I wanna make a supersonic man out of you
e|------------------------------------------14---14-14---14-14-14------------|
B|---------------------------------------------------------------------------|
G|---------------------------------------------------------------------------|
D|---------------------------------------------------------------------------|
A|---------------------------------------------------------------------------|
E|---------------------------------------------------------------------------|

End

************************************

| p pull-off
| ~ vibrato
| b Bend
| br Bend release
| pbs Pick bended string

************************************
Song info
Dont Stop Me Now
Queen
2001
  • Rock
  • Classic Rock
  • Pop Rock
Alternative tracks
Similar songs
White Queen - Queen
Guitar Man - Elvis Presley
Thinking Out Loud - Ed Sheeran
Voodoo Child - Jimi Hendrix

Hi! Hope you enjoy backing track experience.
If you want to help us in the development of the project, feel free to donate!