Killer Queen - Queen
00:00 / 00:00
Tabs and lyrics
Tunning: Standard (E A D G B e)
QUEEN: Killer Queen
Sheer Heart Attack/1974/Freddie Mercury

12"/left/riff A
e|------------------------------------------------------|
B|------------------------------------------------------|
G|-8--8--7--7--\6--6--\5--5--\4--4--\3--3--3--3-\1------|
D|---------------------------------------------------x--|
A|------------------------------------------------1-----|
E|------------------------------------------------------|

38"/left/riff B
e|----5----------------------------------|
B|----5------6---------------------------|
G|----6------7-----4-------9--------7-\--|
D|-7--7------7-----5------10--------8-\--|
A|-7------5--------5------10----10--8-\3-|
E|-5-----5------3-----38---------8--6-\1-|

44"/middle/three guitars arranged for one
e|-------------------13-10-13b15------------------|
B|-------------------15-15-15b16------------------|
G|----10b12-10b12-------------------10b12-10b12---|
D|----12b13-12b13----12-12-12b13----12b13-12b13---|
A|----13----13----------------------13----13------|
E|-1--1-----1-------------------------------------|


56"/left and right guitars 1'26/left
e|--------------------------|--------------------------------------------------|
B|-------------------left: |-------------6------------6-----3----4-----3------|
G|-----right---------riff A-|------6------7-----6------7-----4----5-----4--5\--|
D|-----10b12-8-10----8------|------7------7-----7------7-----5----5-----5----33|
A|booth-----------10--------|------7---5--------7---5--------5--3-------5------|
E|-8------------------------|-1/5-----5------5-----5------3----------3---------|

1'26"/middle
e|-------------------------------5--6----5-----------------3------------|
B|-8b10---b10--b10v--8--6-5-----------8----6-5-----b8-r-6----4p3--------|
G|--------------------------7v-----------------7-----------------5v-(0)-|
D|----------------------------------------------------------------------|
A|----------------------------------------------------------------------|
E|----------------------------------------------------------------------|

e|-3--------------------------------|
B|---4-6-3-4-3----------------------|
G|-------------5\2------------------|
D|-----------------3-3---3-3---3-h3-|
A|----------------------------------|
E|----------------------------------|

1'35"/middle/three guitars
e|--------------------------------------------|
B|--------------------------------------------|
G|-10b12-10b12---10b12-10b12---12-13-14/17----|
D|-12b13-12b13---12b13-12b13---13-14-15-17b19-|
A|-13----13------13----13------13-14-15/20----|
E|--------------------------------------------|

solo/middle
e|------------------------13---13-10h11p10-------------------------------|
B|-13---13--11-13r11-----------------------13------13---13-r12--13r11----|
G|-------------------12-------------------------12--------------------12-|
D|-----------------------------------------------------------------------|
A|-----------------------------------------------------------------------|
E|-----------------------------------------------------------------------|

e|--------------------------------------------------------------15-----|
B|---x15---15-12-13p12-15p13-16p15-18p16-18b20---r18---16---18-----16--|
G|--x------------------------------------------------------------------|
D|-x-------------------------------------------------------------------|
A|---------------------------------------------------------------------|
E|---------------------------------------------------------------------|

e|-------------------------------------------------------|
B|-20r18--p16------18--------------16-18b20--b20-20r18---|
G|------------16-------16\15---17------------------------|
D|-------------------------------------------------------|
A|-------------------------------------------------------|
E|-------------------------------------------------------|

e|--------18---------------------|
B|--18r20----b20---b20--b20r21vv-|
G|-------------------------------|
D|-------------------------------|
A|-------------------------------|
E|-------------------------------|

1'49"/right guitar
e|----------------------------------------------------------------------|
B|-16---15-------14---16-13------14---------------------14b15--b15--14--|
G|-----------15----------------------12-11--11-12--14-------------------|
D|----------------------------------------------------------------------|
A|----------------------------------------------------------------------|
E|-------------------------(0h1)----------------------------------------|

e|-------14---------------------|
B|-14b15----b15--b15--b15b16vv--|
G|------------------------------|
D|------------------------------|
A|------------------------------|
E|------------------------------|

1'49"/left guitar
e|-----------------------------------------------------------------------------|
B|------------13-------13--------------12-15--15--15----------16---------13/15-|
G|-15--15--15-----13-------13-13---13-------------------14/15----15--15--------|
D|-----------------------------------------------------------------------------|
A|-----------------------------------------------------------------------------|
E|-----------------------------------------------------------------------------|

2'1"/right guitar: G Cm G Cm A# D# A# D# D

2'04"/three guitars/wah-wah
e|-------------|
B|-------------|
G|-17-15-------|
D|-17-15-17----|
A|-18-17-18&15-|
E|-------------|

2'13"/left fading to right
e|----------------|-----------------|
B|----------------|-----------------|
G|-10-8-----------|-----------------|
D|------10-8-7----|-3-1-------------|
A|-------------8--|-----3-1-0-------|
E|----------------|-----------1-----|

(2'17-2'25": the multitrack guitarsolo is not presented here)

2'28"/left guitar : riff B

2'35"
e|------------------------|-14b16-b16...|
B|------------------------|-15b16-b16...|
G|-10b12---10b12-10b12----|-14b16-b16...|
D|-12b13---12b13-12b13----|-------------|
A|-12b13---12b13-12b13----|-------------|
E|------------------------|-------------|

left right
e|-20r18-15---------...|
B|----------20r18-16...|
G|------------------...|
D|------------------...|
A|------------------...|
E|------------------...|



************************************

| x Dead note
| (n) Ghost note
| h Hammer-on
| p Pull-off
| r Release
| b Bend
| / Slide up
| \ Slide down
| v Vibrato

************************************
Tunning: Standard (E A D G B e)
the other killer queen tab is soooo complicated and confusing, at least for me, so i
it and adede the stuff it was missing, corrected some stuff, fixed up, so here it is, in
format=)

Verse
|---------------------------------------------------------------------|
|---------------------------------------------------------------------|
|-----------12'--12--10'--10-\8'--8-\5'--5-\4'--4-\3'--3--3'--12p10---|
|---------------------------------------------------------------------|
|-10p8p3--------------------------------------------------------------|
|---------------------------------------------------------------------|

Pre-Chorus
|---------------------------------------------|
|---------------------------------------------|
|---------------------------------------------|
|----------7------7---------------------------|
|--------------5--------5------10-------------|
|2h3h4h5------------3------8------------------|

Chorus
|---------------------------------------------------------|
|---------------------------------------------------------|
|---------------------------------------------------------|
|-------------7------------7----------5-------------5\3---|
|------7---5--------7---5--------5--3-------5-------------|
|---5------------5------------3----------3----------------|

Extro-1
|------------------------------5--6----5-----------------3-------------|
|-8b10---b10----8--6-5---------------8----6-5------8---6----4p3--------|
|------------------------7v-------------------7-----------------5------|
|----------------------------------------------------------------------|
|----------------------------------------------------------------------|
|----------------------------------------------------------------------|

Extro-cont.- not sure
|-3------------------------------------------|
|---4-6-3-4-3--------------------------------|
|-------------5\2----------------------------|
|-----------------3-3--13-13--3-3-13-13-3-h3-|
|----------------------13-13------13-13------|
|--------------------------------------------|

Verse-its a litle different
|---------------------------------------------------------------------|
|---------------------------------------------------------------------|
|-----------12'--12--10'--10-\8'--8-\5'--5-\4'--4-\3'--3--3'--12p10---|
|---------------------------------------------------------------------|
|------3--------------------------------------------------------------|
|---------------------------------------------------------------------|

Pre-Chorus
|---------------------------------------------|
|---------------------------------------------|
|---------------------------------------------|
|----------7------7---------------------------|
|--------------5--------5------10-------------|
|2h3h4h5------------3------8------------------|

Chorus
|---------------------------------------------------------|
|---------------------------------------------------------|
|---------------------------------------------------------|
|-------------7------------7----------5-------------5\3---|
|------7---5--------7---5--------5--3-------5-------------|
|---5------------5------------3----------3----------------|


Somethings missing here-email me at Kaveman@sbcglobal.net if u hav corections


solo
|------------------------13---13-10h11p10-------------------------------|
|-13---13--11-13r11-----------------------13------13---13--12--13-11----|
|-------------------12-------------------------12--------------------12-|
|-----------------------------------------------------------------------|
|-----------------------------------------------------------------------|
|-----------------------------------------------------------------------|

|--------------------------------------------------------------15-----|
|----15---15-12-13p12-15p13-16p15-18p16-18-20----18---16---18-----16--|
|---------------------------------------------------------------------|
|---------------------------------------------------------------------|
|---------------------------------------------------------------------|
|---------------------------------------------------------------------|

|-------------------------------------------------------|
|-20-18--p16------18--------------16-18-20---20-20-18---|
|------------16-------16\15---17------------------------|
|-------------------------------------------------------|
|-------------------------------------------------------|
|-------------------------------------------------------|

|--------18---------------------|
|--18-20-----20----20---20-21---|
|-------------------------------|
|-------------------------------|
|-------------------------------|
|-------------------------------|

Extro-2
|----------------------------------------------------------------------|
|-16---15-------14---16-13------14---------------------14-15---15--14--|
|-----------15----------------------12-11--11-12--14-------------------|
|----------------------------------------------------------------------|
|----------------------------------------------------------------------|
|----------------------------------------------------------------------|

|-------14---------------------|
|-14-15-----15---15---15-16----|
|------------------------------|
|------------------------------|
|------------------------------|
|------------------------------|


|----------------------------------------------------------------------------|
|------------13-------13--------------12-15--15--15----------16------13/15---|
|-15--15--15-----13-------13-13---13-------------------14/15----15--15-------|
|----------------------------------------------------------------------------|
|----------------------------------------------------------------------------|
|----------------------------------------------------------------------------|

G Cm G Cm A# D# A# D# D

Extro-3
|-------------|
|-------------|
|-17-15-------|
|-17-15-17----|
|-18-17-18&15-|
|-------------|

somthin else missing here, need corrections plz

Outro-this over this-------------------------|
|--------^---------------|-14b16-b16...| |
|------------------------|-15b16-b16...| |
|-10b12---10b12-10b12----|-14b16-b16...| |
|-12b13---12b13-12b13----|-------------| |
|-12b13---12b13-12b13----|-------------| |
|------------------------|-------------| |
|
left right |
|-20r18-15---------...| ---|
|----------20r18-16...| ---|
|------------------...|------------------------|
|------------------..--------------------------|
|------------------..--------------------------|
|------------------..--------------------------|


so there it is, enjoy, all corrections, send to-Kaveman@sbcglobal.net-please rate this
its my first one, if its good, ill keep on tabbing.

P.s=), can someone tab a good "if everyone cared"tab, by nickleback, ive been looking
one for some time, thx

END
Tunning: Standard (E A D G B e)
Killer Queen By Queen

Gtr I (E A D G B E) - 'Piano'
Gtr II (E A D G B E) - 'Gtr. I'
Gtr III (E A D G B E) - 'Gtr.II'
Gtr IV (E A D G B E) - 'Gtr.V'

Gtr I
|------------|-----------------|------------------|
|------------|--8---8---8---8--|-9---9--9--9------|
|------------|--8---8---8---8--|-7---7--7--7------|
|------------|-10--10--10--10--|------------------|
|------------|-----------------|-------------10-8-|
|------------|-----------------|------------------|


|-----------------|-----------------|
|--8---8---8---8--|-9--9---8---8----|
|--8---8---8---8--|-7--7---8---8----|
|-10--10--10--10--|-------10--10----|
|-----------------|-----------------|
|--8--------------|-----------------|


|--6----6---6----6--|--6----6-----------|---------------|-6---6---6----------|
|--8----8---8----8--|--8----8---4----4--|-4------4------|-6---6---6----------|
|--8----8---7----7--|--6----6---5----5--|-4------3------|-8---8---7----------|
|--8----8---8----8--|--8----8---6----6--|-6------6------|-8---8---8----------|
|-------------------|-------------------|---------------|--------------------|
|-------------------|-------------------|---------------|--------------------|
|
| Gtr II
|-------------------|-------------------|---------------|--------------------|
|-------------------|-------------------|---------------|--------------------|
|-------------------|-------------------|---------------|--------------------|
|-13---13s=12---12s=|=11---11s=10---10s=|=9---9s=8---8--|-8---8s5-8----------|
|-------------------|-------------------|---------------|--------------------|
|-------------------|-------------------|---------------|--------------------|


|-----------------|-------------|--------------||-------5--5--|
|--8---8---8---8--|-6--6--8--8--|-7--7--6--3-1-||-6--6--6--6--|
|-10--10---8---8--|-7--7--8--8--|-5--5--7--3-2-||-7--7--7--7--|
|--9---9--10--10--|-8--8--8--8--|-7--7--8--5-3-||-8--8--7--7--|
|-10--10--10--10--|-8--8--6--6--|-5--5--8--5-3-||-8--8--5--5--|
|----------8---8--|-6--6--------|-------6--3-1-||-6--6--------|


|-------5--5--|----------5--|-------------|---6-(6)----|
|-3--3--6--6--|-3--3--5--6--|----------5--|---6-(6)----|
|-3--3--7--7--|-3--3--6--7--|----------5--|---7-(7)----|
|-5--5--7--7--|-5--5--7--7--|-5-----9--5--|---8-(8)----|
|-5--5--5--5--|-5--5--7--5--|-5--7--9--3--|------------|
|-3--3--------|-3--3--5-----|-3--5--7-----|------------|



|-------------5---|-----------------|---6-(6)----|
|----5--------6---|----3--------5---|-5-6-(6)----|
|----6--------7---|----3--------5---|-5-7-(7)----|
|----7--------7---|----5--------5---|-5-8-(8)----|
|----7-----5--5---|----5-----3--3---|-3----------|
|-5--5---5--------|-3--3---3--------|------------|


|----------------|-----------------------------------|
|-----1--3---4-4-|-(4)---6----3----4-----------------|
|-----2--3---3-3-|-(3)--------3----3-----------------|
|-----3--3---5-5-|-(5)-3---3--3----5-----------------|
|----------------|-----------------------------------|
|----------------|-----------------------------------|
|
| Gtr II
|----------------|-----------------------------------|
|-----------/8-8-|-(8)-------/8----8-----------------|
|-----------/8-8-|-(8)-------/8----8-----------------|
|----------------|-----------------------------------|
|----------------|-----------------------------------|
|----------------|-----------------------------------|
|
| Gtr III
|----------------|-----------------------------------|
|----------------|-----------18p15----18-18b20-(18)--|
|----------------|-----------------------------------|
|----------------|-----------------------------------|
|----------------|-----------------------------------|
|-1----------1-1-|-(1)-------------------------------|


|-------------------|-----------------||
|-------1---3---4-4-|-(4)---6---3--4--||
|-------2---3---3-3-|-(3)-------3--3--||
|-------3---3---5-5-|-(5)-3---3-3--5--||
|-------------------|-----------------||
|---1---------------|-----------------||
|
|
|-------------------|-----------------||
|--(8)---------/8-8-|-(8)-------------||
|--(8)---------/8-8-|-(8)-------------||
|-------------------|-----------------||
|-------------------|-----------------||
|-------------------|-----------------||
|
|
|-------------------|-----------------||
|-(18)--------------|-----------------||
|-------------------|-----------------||
|-------------------|-----------------||
|-------------------|-----------------||
|-------------------|-----------------||


|-----------------|------------------|
|--8---8---8---8--|-9---9--9--9------|
|--8---8---8---8--|-7---7--7--7------|
|-10--10--10--10--|------------------|
|-----------------|-------------10-8-|
|-----------------|------------------|
|
| Gtr II
|-----------------|------------------|
|-----------------|------------------|
|-----------------|------------------|
|-----------------|------------------|
|-----------------|------------------|
|-----------------|------------------|


|-----------------|--------------------------|
|--8---8---8---8--|--9---9---8----------8----|
|--8---8---8---8--|--7---7---8----------8----|
|-10--10--10--10--|---------10---------10----|
|-----------------|--------------------------|
|--8--------------|--------------------------|
|
|
|-----------------|--------------------------|
|-----------------|--------------------------|
|-----------------|---------10b12-8-10----8--|
|-----------------|--------------------10----|
|-----------------|--------------------------|
|--8--------------|-(8)----------------------|


|--6-----6---6----6--|--6----6-----------|---------------|-6---6---6----------|
|--8-----8---8----8--|--8----8---4----4--|-4------4------|-6---6---6----------|
|--8-----8---7----7--|--6----6---5----5--|-4------3------|-8---8---7----------|
|--8-----8---8----8--|--8----8---6----6--|-6------6------|-8---8---8----------|
|--------------------|-------------------|---------------|--------------------|
|--------------------|-------------------|---------------|--------------------|
|
|--------------------|-------------------|---------------|--------------------|
|--------------------|-------------------|---------------|--------------------|
|-(8)----------------|-------------------|---------------|--------------------|
|--------------------|-------------------|---------------|--------------------|
|--------------------|-------------------|---------------|--------------------|
|--------------------|-------------------|---------------|--------------------|
|
|
| Gtr III
|--------------------|-------------------|---------------|--------------------|
|--------------------|-------------------|---------------|--------------------|
|--------------------|-------------------|---------------|--------------------|
|-13----13s=12---12s=|=11---11s=10---10s=|=9---9s=8---8--|-8---8s5-8----------|
|--------------------|-------------------|---------------|--------------------|
|--------------------|-------------------|---------------|--------------------|


|-----------------|-------------|--------------|
|--8---8---8---8--|-6--6--8--8--|-7--7--6--3-1-|
|-10--10---8---8--|-7--7--8--8--|-5--5--7--3-2-|
|--9---9--10--10--|-8--8--8--8--|-7--7--8--5-3-|
|-10--10--10--10--|-8--8--6--6--|-5--5--8--5-3-|
|----------8---8--|-6--6--------|-------6--3-1-|


Guitar Solo

Gtr II
|--------------------------||--------------------------------|
|--------------------------||--------------------------------|
|------------12b14====(12)-||-12-12r-----12---10s9-----------|
|--------------------------||----------------------12-(12)---|
|--------------------------||--------------------------------|
|--------------------------||--------------------------------|
|
|
| Gtr I
|---6-(6)------------------||---------------------------5----|
|---6-(6)------------------||--------5------------------6----|
|---7-(7)------------------||--------6------------------7----|
|---8-(8)------------------||--------7------------------7----|
|--------------------------||--------7---------5--------5----|
|--------------------------||--5-----5------5----------------|


|--------------------------------|--------------------------------------|
|-10-11------10------------------|------------------8-------------------|
|-------12--------10s9-----------|-10pb12r(10)-10-------8s7-------------|
|----------------------12-(12)---|--------------------------10-(10)-----|
|--------------------------------|--------------------------------------|
|--------------------------------|--------------------------------------|
|
|
|---------------------------5----|--------------------------------------|
|--------5------------------6----|--------------3----------------8------|
|--------6------------------7----|--------------3----------------8------|
|--------7------------------7----|--------------5---------------10------|
|--------7---------5--------5----|--------------5-------3-------10------|
|--5-----5------5----------------|--3-----------3-----3----------8------|


Gtr II
|--------------------------|------------------------|
|-8------------------------|------------------------|
|---8-10-7-8p7-------------|------------------------|
|--------------10\---2s3-3-|-(3)--------------3-2s3-|
|--------------------------|------------------------|
|--------------------------|------------------------|
|
| Gtr III
|--------------------------|------------------------|
|--------------------------|------/8-7s8-(8)--------|
|--------------------------|------/8-7s8-(8)--------|
|--------------------------|------------------------|
|--------------------------|------------------------|
|--------------------------|------------------------|
|
| Gtr I
|--------------------------|------------------------|
|--------3------8----------|------------------------|
|--------3------8----------|------------------------|
|--------5-----10----------|------------------------|
|--------5-----10----------|------------------------|
|-3------3---3--8------1-1-|-(1)--------------1---1-|


|-------------------------|--------------------------|
|-------------------------|--------------------------|
|-------------------------|--------------------------|
|-(3)---------------3-2s3-|-(3)----------------------|
|-------------------------|--------------------------|
|-------------------------|--------------------------|
|
|
|-------------------------|--------------------------|
|-(8)---/8-7s8-(8)--------|--8----9---10-/13-(13)----|
|-(8)---/8-7s8-(8)--------|--------------/10-(10)h===|
|-------------------------|--8----9---10-------------|
|-------------------------|--------------------------|
|-------------------------|--------------------------|
|
|
|-------------------------|--------------------------|
|-------------------------|--------------------------|
|-------------------------|--------------------------|
|-------------------------|--------------------------|
|-------------------------|--------------------------|
|-(1)---------------1---1-|-(1)----------------------|


|--------------------------------------|-----------------------------------|
|--------------------------------------|--18--18p15-16p15------------------|
|--15pb17--15b17r15-15pb17r15----------|------------------17--17-----------|
|-----------------------------17-(17)--|------------------------------17---|
|--------------------------------------|-----------------------------------|
|--------------------------------------|-----------------------------------|
|
|
|--------------------------------------|-----------------------------------|
|-(13)---------------------------------|-(13)------------------------------|
|--12----------------------------------|-(12)------------------------------|
|--------------------------------------|-----------------------------------|
|--------------------------------------|-----------------------------------|
|--------------------------------------|-----------------------------------|
|
|
|--------------------------------------|-----------------------------------|
|---8-------8--------8-------------8---|---9------9--------9---9-----------|
|---8-------8--------8-------------8---|---7------7--------7---7-----------|
|--10------10-------10------------10---|-----------------------------------|
|--------------------------------------|---------------------------10----8-|
|--------------------------------------|-----------------------------------|


|------------------------------------|------------------------------------|
|------------------------------------|-15-15p12-13p12-15p13-16p15-18p16---|
|-17--17s16-15pb17r(15)-12-(12)-(12)-|------------------------------------|
|------------------------------------|------------------------------------|
|------------------------------------|------------------------------------|
|------------------------------------|------------------------------------|
|
|
|------------------------------------|------------------------------------|
|------------------------------------|------------------------------------|
|------------------------------------|------------------------------------|
|------------------------------------|------------------------------------|
|------------------------------------|------------------------------------|
|------------------------------------|------------------------------------|
|
|
|------------------------------------|------------------------------------|
|--8---8-----8---------------8-------|--9-----9--------8--------8---------|
|--8---8-----8---------------8-------|--7-----7--------8--------8---------|
|-10--10----10--------------10-------|----------------10-------10---------|
|------------------------------------|------------------------------------|
|--8---------------------------------|------------------------------------|



|-------------------------------------|------------15-------------------------|
|-18b20==(18)----------(18)r(18)------|--16-----18----16-------18pb20r(18)p16-|
|-------------------------------------|---------------------------------------|
|-------------------------------------|---------------------------------------|
|-------------------------------------|---------------------------------------|
|-------------------------------------|---------------------------------------|
|
|
|-------------------------------------|---------------------------------------|
|-------------16-------------15-------|------14-------16---13-----------------|
|-------------------15-(15)--------15-|-(15)-------15s17---13-----------------|
|-------------------------------------|---------------------------------------|
|-------------------------------------|---------------------------------------|
|-------------------------------------|---------------------------------------|
|
|
|----------6------6------6-------6----|---6------6----------------------------|
|----------8------8------8-------8----|---8------8-----4----------------4-----|
|----------8------8------7-------7----|---6------6-----5----------------5-----|
|----------8------8------8-------8----|---8------8-----6----------------6-----|
|-------------------------------------|---------------------------------------|
|-------------------------------------|---------------------------------------|


|-----------------------|-------------------------------------------------|
|-----18-------------16-|-18b20==(18)---18-------18r(18)--------18b20=====|
|-16-------16s15--17----|-------------------------------------------------|
|-----------------------|-------------------------------------------------|
|-----------------------|-------------------------------------------------|
|-----------------------|-------------------------------------------------|
|
|
|-----------------------|-------------------------------------------------|
|-----14----------------|-15b16--(15)---15b16====15r(15)--------15b16-----|
|-13--13---13s12--13-15-|-15-----(15)---15-------15-(15)--------14b15-----|
|-13-------13-13--13-17-|-------------------------------------------------|
|-----------------------|-------------------------------------------------|
|-----------------------|-------------------------------------------------|
|
|
|-----------------------|----------6-----6------------6-------------------|
|--4-----------4--------|----------6-----6------------6-------------------|
|--4-----------3--------|----------8-----8------------7-------------------|
|--6-----------6--------|----------8-----8------------8-------------------|
|-----------------------|-------------------------------------------------|
|-----------------------|-------------------------------------------------|


|------18-----------------------|----------------------||
|-(18)----18---18---18b21==(18)-|-(18)----(18)---(18)r-||
|-------------------------------|----------------------||
|-------------------------------|----------------------||
|-------------------------------|----------------------||
|-------------------------------|----------------------||
|
|
|------15-----------------------|----------------------||
|-(15)-16-15---15---15-----(15)-|-(15)----(15)---(15)--||
|-(14)----14---14---17b19==(17)-|-(17)----(17)---(17)r-||
|-------------------------------|----------------------||
|-------------------------------|----------------------||
|-------------------------------|----------------------||
|
|
|---6------6----6----6----------|----------------------||
|---6------6----6----6----------|--10------------------||
|---6------6----6----6----------|---7------------------||
|---8------8----8----8----------|---8------------------||
|-------------------------------|----------------------||
|-------------------------------|----------------------||


|---------------------------|------------------|
|---------------------------|------------------|
|---------------7b8r==(7)p5-|------------------|
|---------------------------|------------------|
|---------------------------|------------------|
|---------------------------|------------------|
|
|
|---------------------------|------------------|
|--------------11b13r(11)p8-|------------------|
|--------------10b12r(10)p8-|------------------|
|---------------------------|------------------|
|---------------------------|------------------|
|---------------------------|------------------|
|
|
|---------------------------|------------------|
|--8----8---8---8-----------|--8---8---8---8---|
|-10---10---8---8-----------|-10--10---8---8---|
|--9----9--10--10-----------|--9---9--10--10---|
|-10---10--10--10-----------|-10--10--10--10---|
|-----------8---8-----------|----------8---8---|


|-------------|-------------|-------------|
|-6--6--8--8--|-6--6--8--8--|-7--7--3--1--|
|-7--7--8--8--|-7--7--8--8--|-5--5--3--2--|
|-8--8--8--8--|-8--8--8--8--|-7--7--5--3--|
|-8--8--6--6--|-8--8--6--6--|-5--5--5--3--|
|-6--6--------|-6--6--------|-------3--1--|


Gtrs II, III
|--------------------|-----------------------------||-------------------|
|--------------------|-----------------------------||-------------------|
|------10-8----------|-----------------------------||-7---5---5---/10---|
|-----------10-8-7---|------3-1--------------------||-8---7---5----/7---|
|------------------8-|-8--------3-1----------------||-------------------|
|--------------------|--------------4b5-1-1-1-1-1--||-------------------|
|
| Gtr I
|
|--------------------|-----------------------------||---------5-----5---|
|-6-----1------------|-6----1----------------------||-6---6---6-----6---|
|-7-----2------------|-7----2----------------------||-7---7---7-----7---|
|-8-----3------------|-8----3----------------------||-8---8---7-----7---|
|-8-----3------------|-8----3----------------------||-8---8---5-----5---|
|-6-----1------------|-6----1----------------------||-6---6-------------|


|---------------|--------------|------------------|------------|
|-----------1-2-|-3-----5---7--|-3---5---7--8-----|------------|
|-7---------2-2-|-3------------|-4---5---7--9-----|------------|
|-5-----7---3-4-|-5-----5---7--|-5---7---9-10-----|------------|
|---------------|--------------|------------------|------------|
|-------5-------|--------------|------------------|------------|
|
|
|-------5---5---|-----------5--|------------------|-6-6-(6)----|
|-3--3--6---6---|-3--3--5---6--|---------------5--|-6-6-(6)----|
|-3--3--7---7---|-3--3--6---7--|---------------5--|-7-7-(7)----|
|-5--5--7---7---|-5--5--7---7--|-5-------9-----5--|-8-8-(8)----|
|-5--5--5---5---|-5--5--7---5--|-5---7---9-----3--|------------|
|-3--3----------|-3--3--5------|-3---5---7--------|------------|


Gtr I
|-------------5---|-----------------|---6-(6)----|
|----5--------6---|----3--------5---|-5-6-(6)----|
|----6--------7---|----3--------5---|-5-7-(7)----|
|----7--------7---|----5--------5---|-5-8-(8)----|
|----7-----5--5---|----5-----3--3---|-3----------|
|-5--5---5--------|-3--3---3--------|------------|


Gtr III
|------------------|----------------------|---------------|
|-----------8-7b8==|=(7)-----(7)r----/8-8-|-(8)-----------|
|-----------8-7b8==|=(7)-----(7)-----/8-8-|-(8)-----------|
|------------------|----------------------|---------------|
|------------------|----------------------|---------------|
|------------------|----------------------|---------------|
|
| Gtr II
|
|------------------|----------------------|---------------|
|-1---1--3--4------|------1-------3---4-4-|------1--3--4--|
|-2---2--3--3------|------2-------3---3-3-|------2--3--3--|
|-3---3--3--5------|------3-------3---5-5-|------3--3--5--|
|-3---3------------|------3---------------|------3--------|
|-1---1------------|--1---1---------------|--1---1--------|


|-------------13b15-13b15==|=(13)r------13b15-13b15==|
|-------------14b16-14b16==|=(14)r------14b16-14b16==|
|--------------------------|-------------------------|
|--------------------------|-------------------------|
|--------------------------|-------------------------|
|--------------------------|-------------------------|
|
|
|--------------------------|-------------------------|
|--------------------------|-------------------------|
|--------------------------|------------13b15-13b15==|
|--------------------------|-------------------------|
|--------------------------|-------------------------|
|--------------------------|-------------------------|
|
| Gtr IV
|
|--------------------------|-------------------------|
|----------3---------------|-------------------------|
|----------3---8-----8-----|--(8)--------8-----8-----|
|----3---3-3---8-----8-----|--(8)--------8-----8-----|
|--------------6-----6-----|--(6)--------6-----6-----|
|-1----1-------------------|-------------------------|


||--(13)-----(13)r(13)-13b15-13b15===||
||o-(14)-----(14)r(14)-14b16-14b16==o||
||-----------------------------------||
||-----------------------------------||
||o---------------------------------o||
||-----------------------------------||
||
||-----------------------------------||
||o---------------------------------o||
||--(13)r--------------13b15-13b15===||
||-----------------------------------||
||o---------------------------------o||
||-----------------------------------||
||
||-----------------------------------||
||o---------------------------------o||
||---(8)----------------8-----8------||
||---(8)----------------8-----8------||
||o--(6)----------------6-----6-----o||
||-----------------------------------||


|-(13)---------------------(13)r===(13)--------13b15----13b15========|
|-(14)---------------------(14)r===(14)--------14b16----14b16========|
|--------------------------------------------------------------------|
|--------------------------------------------------------------------|
|--------------------------------------------------------------------|
|--------------------------------------------------------------------|
|
|
|--------------------18b20r(18)p15-----------------------------18b20r|
|------18b20r(18)p16--------------------18b20r(18)p==16--------------|
|--------------------------------------------------------------------|
|--------------------------------------------------------------------|
|--------------------------------------------------------------------|
|--------------------------------------------------------------------|
|
|
|--------------------------------------------------------------------|
|--------------------------------------------------------------------|
|--(8)------------------------------------------8--------8-----------|
|--(8)------------------------------------------8--------8-----------|
|--(6)------------------------------------------6--------6-----------|
|--------------------------------------------------------------------|


6x
||--(13)------------------------(13)r===(13)--------13b15----13b15==========||
||o-(14)------------------------(14)r===(14)--------14b16----14b16=========o||
||--------------------------------------------------------------------------||
||--------------------------------------------------------------------------||
||o------------------------------------------------------------------------o||
||--------------------------------------------------------------------------||
|
| 6x
||--(18)p15---------------18b20r(18)p15-----------------------------18b20r==||
||o---------18b20r(18)p16--------------------18b20r(18)p==16---------------o||
||--------------------------------------------------------------------------||
||--------------------------------------------------------------------------||
||o------------------------------------------------------------------------o||
||--------------------------------------------------------------------------||
|
| 6x
||--------------------------------------------------------------------------||
||o------------------------------------------------------------------------o||
||---(8)---------------------------------------------8--------8-------------||
||---(8)---------------------------------------------8--------8-------------||
||o--(6)---------------------------------------------6--------6------------o||
||--------------------------------------------------------------------------||
Song info
Killer Queen
Queen
2001
  • Rock
  • Classic Rock
  • Glam
Alternative tracks
Similar songs
Still Of The Night - Whitesnake
Number The Brave - Wishbone Ash
Long Live Rock - The Who
Promised Land - Elvis Presley
Southern Man - Neil Young

Hi! Hope you enjoy backing track experience.
If you want to help us in the development of the project, feel free to donate!