Tie Your Mother Down - Queen
00:00 / 00:00
Tabs and lyrics
Tunning: Standard (E A D G B e)
Queen: Tie Your Mother Down
Live Killers version

[riff A]
e|-------------|------|-3-----2---------------|-------| 0/
B|-------------|------|-3-----3-----1---------|-------| /0 : repeat
G|(2)--2-----2-|--0/--|-0-----2-----0-----0---|-0///--| 0///
D|-2--(2)---(2)|--/0--|-0-----0-----2-----0---|-///0--| ///0: repeat last three
A|-0-----3p0(0)|------|-------------3-----2---|-------| bars
E|-------------|- 5X -|-----------------------|- 4X --|

[riff B]
e|--------------------------------------------------|
B|--------------------------------------------------|
G|--------------------------------------------------|
D|--9--------9-11--9----9-11--9-----9-11--9---9-11--|
A|2/7--------7-7---7----7-7---7-----7-7---7---7-7---|
E|--------------------------------------------------|

[riff C]
e|------------------------|
B|------------------------|
G|------------------------|
D|-9---1212--1212--1212\--|
A|-7---1010--1010--1010\--|
E|------------------------|

[riff D]
e|-------------|------|-------------------------------------|
B|-------------|------|-------------------------------------|
G|(2)--2-----2-|--0/--|-2-----------------------------------|
D|-2--(2)---(2)|--/0--|-2-----------2-----2-----------------|
A|-0-----3p0(0)|------|-0---10\-----0-----2-----3-----4-----|
E|-------------|- 4X -|-------------------------------------|

[riff E]
e|------------------------------------------------|
B|------------------------------------------------|
G|-2---2-4-----2---2-4-----2--2-4---4-2---2-4---2-|
D|-0---0-0-x-x-0---0-0-----0--0-0---0-0---0-0---0-|
A|------------------------------------------------|
E|------------------------------------------------|

[riff F]
e|------------------------------------------------|
B|------------------------------------------------|
G|-------2---2-0---0-2------------2-----2---2-2---|
D|-2-----2---2-0---0-0------------2-----2---2-2---|
A|-0---0-----------------3b-0---0-----0-----0-0---|
E|------------------------------------------------|

e|------------------------|----|
B|------------------------|----|
G|-2-2---2-4-----2---2-2--|-0/-|
D|-0-0---0-0-----0---0-0--|-/0-|
A|------------------------|----|
E|------------------------|----|

G D C G

riff A (with % 5X, % 2X)
riff B
riff C
riff D (with % 1X )
riff E
riff F
riff E
G D C G
riff A (with % 5x, - )
G D C G


[solo]

e|---------------------------------------------------------|
B|-7b8---------------7-7b8---------------7-7b8---7-7b8-----|
G|-7b9---------------7-7b9---------------7-7b9---7-7b9-----|
D|---------------------------------------------------------|
A|---------------------------------------------------------|
E|---------------------------------------------------------|

G D C G

e|------------------------------------------|
B|-b8r7-5-7---5-----------b8r7-5-7---7b9----|
G|-b9r7-5-7---5-----------b9r7-5-7---7b8----|
D|-----------------7-5---7------------------|
A|------------------------------------------|
E|------------------------------------------|

e|-------------------------------------|
B|-8r7-5-7--5--------------------------|
G|-9r7-5-7--5--------------------------|
D|--------------7-5--------------------|
A|------------------7-5-3-5-3---3/10\--|
E|----------------------------5--------|

"slide on"
e|------------------------------------->>>>>>>>---|
B|------------------------------------->>>>>>>>---|
G|-9---7-7-----9----------------------->>>>>>>>---|
D|-9---7-7-----9-------12---14----9---->>>>>>>>---|
A|-7---5-5---0-7-------10---12----7---->>>>>>>>---|
E|------------------------------------->>>>>>>>---|

e|------------------------------------|
B|/14--14--14--14\--/14--14--14--14\--|
G|/14--14--14--14\--/14--14--14--14\--|
D|/14--14--14--14\--/14--14--14--14\--|
A|------------------------------------|
E|------------------------------------|

| | | | | | | | | | | | | |
e|------17---/15------------------------------------------------------|
B|-15/17----------15-14\-12/14----------------------------------------|
G|-----------------------------14----12-------------------------------|
D|--------------------------------------14\12----10/12----------------|
A|-----------------------------------------------------12----12\10----|
E|--------------------------------------------------------------------|

e|-------------------------------------|
B|/14--14--14--14\---/14--14--14--14-\-|
G|/14--14--14--14\---/14--14--14--14-\-|
D|/14--14--14--14\---/14--14--14--14-\-|
A|-------------------------------------|
E|-------------------------------------|

. . . . . :pick
e|--------------------------------------------|
B|----14\12/-14\12-/14\12-/14\12--/14-12/14---|
G|----14\12/-14\12-/14\12-/14\12--/14-12/14---|
D|-12-14\12/-14\12-/14\12-/14\12--/14-12/14---|
A|--------------------------------------------|
E|--------------------------------------------|

E G A E G

e|--------------------------------------------|
B|--/14---\\--/14--14--\\-//17--17-/17-/17\---|
G|--/14---\\--/14--14--\\-//17--17-/17-/17\---|
D|--/14---\\--/14--14--\\-//17--17-/17-/17\---|
A|--------------------------------------------|
E|--------------------------------------------|

"slide off"
e|----->>>>>>>>>---|
B|----->>>>>>>>>---|
G|-2--->>>>>>>>>---|
D|-0--->>>>>>>>>---|
A|----->>>>>>>>>---|
E|----->>>>>>>>>---|


[riff E]

G D C G

riff A (with % 5X, - )
| | | | | | | | | | | | | | | | | | | | | | | | | | | | | | | | | | |
e|-----------------------------------------------------------------------|
B|-----------4-5-----4---5-2---4-5---2-4---5-7---4-5-----4---5-7---4-5---|
G|-----------4-5-----4---5-2---4-5---2-4---5-7---4-5-----4---5-7---4-5---|
D|-2---------4-5-----4---5-2---4-5---2-4---5-7---4-5-----4---5-7---4-5---|
A|-0-----------------------------------------0---------------------------|
E|-----------------------------------------------------------------------|

G D C G

e|-----------------------------------------------------------------------|
B|-----4-5---2-4---5-7-----5-----7-----0-----2-----5-----7---------------|
G|-2---4-5---2-4---5-7-----5-----7-----0-----2-----5-----7---------------|
D|-2---4-5---2-4---5-7-----5-----7-----0-----2-----5-----7---5---5-7-5---|
A|-0-------------------------------------------------------------------7-|
E|-----------------------------------------------------------------------|

G D C G

riff A (with % 5X, - )

D
A


[Solo]

e|-----------------------------------------------------------|
B|-5b----------------------------------------------8b10--8v--|
G|-5b--------------7--5b6r5--------------7--6-b6r5-----------|
D|-------7--7----5-------------7--7----5---------------------|
A|-----------------------------------------------------------|
E|-----------------------------------------------------------|

e|---------------------------------------------------------------------|
B|-5-------------------------------------------------------------------|
G|---8-7-5--7p5--------------------------------------------------------|
D|--------------7p5----------------------------------------------------|
A|------------------7-6-5-3p0h3vvvp0-5p3p0h3v---5p3p0h3v---5p3p0h3v----|
E|---------------------------------------------------------------------|

e|--------------------------------------------------------|
B|--------------------------------------------------------|
G|-----------------------------------------------5--------|
D|---------------------------------------5---5-7----------|
A|-5p0-0-5p0-3p0-5p0-3p0-5p0-3p0-5p0-5-7---7--------7vv---|
E|--------------------------------------------------------|

e|-------------------------------------------------------------------------------------|
B|---------------------------------------------------------12b14_r12b13_rp10-12----10--|
G|-(0)----------------------------11b13__r11p9-11--9----9------------------------------|
D|-(0)-5--0-7--5b------------9-9---------------------11--------------------------------|
A|----------------7vv-\5/11------------------------------------------------------------|
E|-------------------------------------------------------------------------------------|

slide 'on'
e|-----------------------------------------14-------17-------17\15-----------------------------------------|
B|-----14---14-14_\-------14-14---14-14-------16/17-------17---------17_\15---15\13---13/14----------------|
G|-----14---14-14_\-------14-14---14---------------------------------------------------------14---14\12----|
D|-/14-14---14-14_\5/14---14-14---14--------------------------------------------------------------------12-|
A|---------------------------------------------------------------------------------------------------------|
E|---------------------------------------------------------------------------------------------------------|

e|------------------------------------------------14-------------------------------------------|
B|-13/14---14-14---14---------------14---14-14\10/--\12/_14\-12---14-12/_14-12/14------14\-----|
G|-13/14---14-14---14---------------14---14--------------14-------14-12/_14-12/14------14\-----|
D|-13/14---14-14---14-14\2---2/14---14---14-----------------------------------------14---\-----|
A|---------------------------------------------------------------------------------------------|
E|------------------------------------------------------------------------------------------0--|



************************************

| x Dead note
| (n) Ghost note
| h Hammer-on
| p Pull-off
| r Release
| b Bend
| / Slide up
| \ Slide down

************************************
Tunning: Standard (E A D G B e)
Tabbed by:Conky
Email:conky4@hotmail.com

Tuning: Standard (EADGBe)
(use a slide for the solo)

[Verse] x5
A G C
e|--------------------------------------------------3-3----------------------|
B|-222----222---222---222---222---222---222---222---3-0-3-3------------------|
G|-222----222---222---222---222---222---222---222---0-0-0-0------------------|
D|-222----222---222---222---222---222---222---222---0-0-2-0------------------|
A|-003p0--003p0-003p0-003p0-003p0-003p0-003p0-003p0-2-0-3-2------------------|
E|--------------------------------------------------3-2----------------------|

[Pre-chorus]
(part 1)
e|---------------------------------------------------------------------------|
B|---------------------------------------------------------------------------|
G|-7-7- 7-7-7- 7-7-7- 7-7-7- 7-7-7- 7-7-7- 7-7-7- 7-121212121212\------------|
D|-7-7-11-7-7-11-7-7-11-7-7-11-7-7-11-7-7-11-7-7-11-121212121212\------------|
A|-9-9- 9-9-9- 9-9-9- 9-9-9- 9-9-9- 9-9-9- 9-9-9- 9-101010101010\------------|
E|---------------------------------------------------------------------------|

[Pre-chorus]
(part 2)
e|---------------------------------------------------------------------------|
B|-222----222---222---222---222---222---222---222----------------------------|
G|-222----222---222---222---222---222---222---222----------------------------|
D|-222----222---222---222---222---222---222---222----------------------------|
A|-003p0--003p0-003p0-003p0-003p0-003p0-003p0-003p0-0-2-3-4------------------|
E|---------------------------------------------------------------------------|

[Pre-chorus]
(part 3)
e|---------------------------------------------------------------------------|
B|-222---222-----------------------------------------------------------------|
G|-222---222-----------------------------------------------------------------|
D|-222---222-----------------------------------------------------------------|
A|-003p0-003p0-0-2-3-4-------------------------------------------------------|
E|---------------------------------------------------------------------------|

[Chorus]
e|---------------------------------------------------------------------------|
B|-----------------------------3-3-------------------------------------------|
G|-7-7-7-7-7-7-7-7-7-7-7-7-2-2-0-2-2-2-2-2-2-2-2-7-7-7-7-7-7-7-7-7-7-7-7-----|
D|-7-7-9-7-7-9-7-7-9-7-7-9-2-2-0-0-2-2-2-2-2-2-2-7-7-9-7-7-9-7-7-9-7-7-9-----|
A|-5-5-5-5-5-5-5-5-5-5-5-5-0-2-----0-0-0-0-0-0-0-5-5-5-5-5-5-5-5-5-5-5-5-----|
E|-----------------------------3-3-------------------------------------------|

e|-3-3-----------------------------------------------------------------------|
B|-3-0-3-3-------------------------------------------------------------------|
G|-0-0-0-0-------------------------------------------------------------------|
D|-0-0-2-0-------------------------------------------------------------------|
A|-2-0-3-2-------------------------------------------------------------------|
E|-3-2-----------------------------------------------------------------------|

[Verse] x3
A G C
e|--------------------------------------------------3-3----------------------|
B|-222----222---222---222---222---222---222---222---3-0-3-3------------------|
G|-222----222---222---222---222---222---222---222---0-0-0-0------------------|
D|-222----222---222---222---222---222---222---222---0-0-2-0------------------|
A|-003p0--003p0-003p0-003p0-003p0-003p0-003p0-003p0-2-0-3-2------------------|
E|--------------------------------------------------3-2----------------------|

[Pre-chorus]
(part 1)
e|---------------------------------------------------------------------------|
B|---------------------------------------------------------------------------|
G|-7-7- 7-7-7- 7-7-7- 7-7-7- 7-7-7- 7-7-7- 7-7-7- 7-121212121212\------------|
D|-7-7-11-7-7-11-7-7-11-7-7-11-7-7-11-7-7-11-7-7-11-121212121212\------------|
A|-9-9- 9-9-9- 9-9-9- 9-9-9- 9-9-9- 9-9-9- 9-9-9- 9-101010101010\------------|
E|---------------------------------------------------------------------------|

[Pre-chorus]
(part 2)
e|---------------------------------------------------------------------------|
B|-222----222---222---222---222---222---222---222----------------------------|
G|-222----222---222---222---222---222---222---222----------------------------|
D|-222----222---222---222---222---222---222---222----------------------------|
A|-003p0--003p0-003p0-003p0-003p0-003p0-003p0-003p0-0-2-3-4------------------|
E|---------------------------------------------------------------------------|

[Pre-chorus]
(part 3)
e|---------------------------------------------------------------------------|
B|-222---222-----------------------------------------------------------------|
G|-222---222-----------------------------------------------------------------|
D|-222---222-----------------------------------------------------------------|
A|-003p0-003p0-0-2-3-4-------------------------------------------------------|
E|---------------------------------------------------------------------------|

[Chorus]
e|---------------------------------------------------------------------------|
B|-----------------------------3-3-------------------------------------------|
G|-7-7-7-7-7-7-7-7-7-7-7-7-2-2-0-2-2-2-2-2-2-2-2-7-7-7-7-7-7-7-7-7-7-7-7-----|
D|-7-7-9-7-7-9-7-7-9-7-7-9-2-2-0-0-2-2-2-2-2-2-2-7-7-9-7-7-9-7-7-9-7-7-9-----|
A|-5-5-5-5-5-5-5-5-5-5-5-5-0-2-----0-0-0-0-0-0-0-5-5-5-5-5-5-5-5-5-5-5-5-----|
E|-----------------------------3-3-------------------------------------------|

e|-3-3-----------------------------------------------------------------------|
B|-3-0-3-3-------------------------------------------------------------------|
G|-0-0-0-0-------------------------------------------------------------------|
D|-0-0-2-0-------------------------------------------------------------------|
A|-2-0-3-2-------------------------------------------------------------------|
E|-3-2-----------------------------------------------------------------------|

[Verse]
A G C
e|--------------------------------------------------3-3----------------------|
B|-222----222---222---222---222---222---222---222---3-0-3-3------------------|
G|-222----222---222---222---222---222---222---222---0-0-0-0------------------|
D|-222----222---222---222---222---222---222---222---0-0-2-0------------------|
A|-003p0--003p0-003p0-003p0-003p0-003p0-003p0-003p0-2-0-3-2------------------|
E|--------------------------------------------------3-2----------------------|

[Solo 1]
e|---------------------------------------------------------------------------|
B|--------------------------8-5----------------------------------------------|
G|-5b-------7-5b-------7-6b-----8-7-5----------------------------------------|
D|----7-7-5------7-7-5----------------7-5------------------------------------|
A|----------------------------------------7-6-5-3-3p0-5p0-3p0-5p0-3p0-5p0----|
E|---------------------------------------------------------------------------|

e|---------------------------------------------------------------------------|
B|---------------------------------------------------------------------------|
G|---------------------------------------------------------------------------|
D|-------------------------------------------------------------5---5-7-------|
A|-3p0-5p0-3p0-5p0-3p0-5p0-3p0-5p0-3p0-5p0-3p0-5p0-3p0-5p0-5-7---7-----7~----|
E|---------------------------------------------------------------------------|

e|---------------------------------------------------------------------------|
B|------------------------------------12b-12b-12-10-12-----------------------|
G|----------------11-11b-11-9-11-9-11----------------------------------------|
D|-5-0-7-0----9-9-------------11---------------------------------------------|
A|---------7~----------------------------------------------------------------|
E|---------------------------------------------------------------------------|

e|-3\\\\\\\\\\\\\\14-3\\\\\\\\\\\\\\14-14-------17-15------------------------|
B|-3\\\\\\\\\\\\\\14-3\\\\\\\\\\\\\\14----16-17-------17-15-13---------------|
G|-3\\\\\\\\\\\\\\14-3\\\\\\\\\\\\\\14-------------------------12-14---------|
D|-3\\\\\\\\\\\\\\---3\\\\\\\\\\\\\\-----------------------------------------|
A|---------------------------------------------------------------------------|
E|---------------------------------------------------------------------------|

e|-3\\\\\\\\\\\\\\14-3\\\\\\\\\\\\\\14---------------------------------------|
B|-3\\\\\\\\\\\\\\14-3\\\\\\\\\\\\\\14----12-------12-------12-------12------|
G|-3\\\\\\\\\\\\\\14-3\\\\\\\\\\\\\\14-------14bp0----14bp0----14bp0----14bp0|
D|-3\\\\\\\\\\\\\\---3\\\\\\\\\\\\\\-----------------------------------------|
A|---------------------------------------------------------------------------|
E|---------------------------------------------------------------------------|

e|---------------------------------------------------------------------------|
B|----12-------12-------12-------12-------12-------12-------12-------12------|
G--------14bp0----14bp0----14bp0----14bp0----14bp0----14bp0----14bp0----14bp0|
D|---------------------------------------------------------------------------|
A|---------------------------------------------------------------------------|
E|---------------------------------------------------------------------------|

e|--------------------------------------------------3\\\\\\\\\\\\\\14--------|
B|--------------------------------------------------3\\\\\\\\\\\\\\14--------|
G|-7-7- 7-7-7- 7-7-7- 7-7-7- 7-7-7- 7-7-7- 7-7-7- 7-3\\\\\\\\\\\\\\14--------|
D|-7-7-11-7-7-11-7-7-11-7-7-11-7-7-11-7-7-11-7-7-11-3\\\\\\\\\\\\\\----------|
A|-9-9- 9-9-9- 9-9-9- 9-9-9- 9-9-9- 9-9-9- 9-9-9- 9--------------------------|
E|---------------------------------------------------------------------------|

e|-3\\\\\\\\\\\\\\14-14-14-14-14-14-14---------------------------------------|
B|-3\\\\\\\\\\\\\\14-14-14-14-14-14-14---------------------------------------|
G|-3\\\\\\\\\\\\\\14-14-14-14-14-14-14---------------------------------------|
D|-3\\\\\\\\\\\\\\-----------------------------------------------------------|
A|--------------------------------------0-0-2-2-3-4--------------------------|
E|---------------------------------------------------------------------------|

[Chorus]
e|---------------------------------------------------------------------------|
B|-----------------------------3-3-------------------------------------------|
G|-7-7-7-7-7-7-7-7-7-7-7-7-2-2-0-2-2-2-2-2-2-2-2-7-7-7-7-7-7-7-7-7-7-7-7-----|
D|-7-7-9-7-7-9-7-7-9-7-7-9-2-2-0-0-2-2-2-2-2-2-2-7-7-9-7-7-9-7-7-9-7-7-9-----|
A|-5-5-5-5-5-5-5-5-5-5-5-5-0-2-----0-0-0-0-0-0-0-5-5-5-5-5-5-5-5-5-5-5-5-----|
E|-----------------------------3-3-------------------------------------------|

e|-3-3-----------------------------------------------------------------------|
B|-3-0-3-3-------------------------------------------------------------------|
G|-0-0-0-0-------------------------------------------------------------------|
D|-0-0-2-0-------------------------------------------------------------------|
A|-2-0-3-2-------------------------------------------------------------------|
E|-3-2-----------------------------------------------------------------------|

[Verse]
A G C
e|--------------------------------------------------3-3----------------------|
B|-222----222---222---222---222---222---222---222---3-0-3-3------------------|
G|-222----222---222---222---222---222---222---222---0-0-0-0------------------|
D|-222----222---222---222---222---222---222---222---0-0-2-0------------------|
A|-003p0--003p0-003p0-003p0-003p0-003p0-003p0-003p0-2-0-3-2------------------|
E|--------------------------------------------------3-2----------------------|

[Solo 2]
e|---------------------------------------------------------------------------|
B|--------------------------8-5----------------------------------------------|
G|-5b-------7-5b-------7-6b-----8-7-5----------------------------------------|
D|----7-7-5------7-7-5----------------7-5------------------------------------|
A|----------------------------------------7-6-5-3-3p0-5p0-3p0-5p0-3p0-5p0----|
E|---------------------------------------------------------------------------|

e|---------------------------------------------------------------------------|
B|-------------------------------------------------------------2-------------|
G|-------------------------------------------------------------2-------------|
D|-------------------------------------------------------------2-------------|
A|-3p0-5p0-3p0-5p0-3p0-5p0-3p0-5p0-3p0-5p0-3p0-5p0-3p0-5p0-5~--0-------------|
E|---------------------------------------------------------------------------|


************************************

| p Pull-off
| \ Slide down
| b Bend
| ~ Vibrato

************************************
Song info
Tie Your Mother Down
Queen
2001
  • Rock
  • Arena Rock
  • Classic Rock
  • Pop Rock
Alternative tracks
Similar songs
Moonage Daydream - David Bowie
Aint Too Proud To Beg - The Rolling Stones
Nights In White Satin - The Moody Blues

Hi! Hope you enjoy backing track experience.
If you want to help us in the development of the project, feel free to donate!