Feel Good Hit Of The Summer - Queens of the Stone Age
00:00 / 00:00
Tabs and lyrics
Tunning: Standard (E A D G B e)
Ok folks this is fairly simple!

[Intro]
A#5
e-------------------------------------|
B-------------------------------------|
G-------------------------------------|
D--8-8-8--8-8--8--8-8--8-8-8----------|
A--8-8-8--8-8--8--8-8--8-8-8----------|
E--6-6-6--6-6--6--6-6--6-6-6----------|

repeat that for a long time for the 'Nicotine, Valium...' bit.

Then for the 'Co-co-co-co-co-co-caine!!!!!!!!!' bit just do
A#5 C#5 A#5
e--------------------------------------------------------------|
B--------------------------------------------------------------| h=hammer on
G--------------------------------------------------------------|
D-8-8-8-8-8-8-8-11---8-8-8-8-8-8-8-8-8-8-------8-8-8-8-8-8-----|
A-8-8-8-8-8-8-8-11---8-8-8-8-8-8-8-8-8-8-------8-8-8-8-8-8-----|
E-6-6-6-6-6-6-6--9---6-6-6-6-6-6-6-6-6h7666666-----------------|
Thats just about it, just go slightly mental near the end and you got it!



************************************

| h Hammer-on

************************************
Tunning: Standard (E A D G B e)
Tuning: C F Bb Eb G C

verse: 12x 12th time ending
---------------------|-----------|
---------------------|---10------|
---7-7-7-7-7-7-7-7---|---12b-----|
---7-7-7-7-7-7-7-7---|-----------|
---5-5-5-5-5-5-5-5---|-----------|
---------------------|-----------|
pm-------------------------------|

verse:
Nicotine valium vicadin marijuana ecstacy and alcohol

chorus 1x
------------------------|
-----------------10-----|
---7-7-7-7-7-7-7-12-----|
---7-7-7-7-7-7-7--------|
---5-5-5-5-5-5-5--------|
------------------------|
pm----------------------|

chorus:
Co-co-co-co-co-co-cocaine

3x 3rd time ending
---------------------|--------|
---------------------|---10---|
---7-7-7-7-7-7-7-7---|---12---|
---7-7-7-7-7-7-7-7---|--------|
---5-5-5-5-5-5-5-5---|--------|
---------------------|--------|


-----------------------------------------------------------|
-----------------------------------------------------10----|
---7-7-7-7-7-7-7-7---7-7-7-7-7-7-7-7-7-7-7-7-7-7-7-7-12b---|
---7-7-7-7-7-7-7-7---7-7-7-7-7-7-7-7-7-7-7-7-7-7-7-7-------|
---5-5-5-5-5-5-5-5-6p5-5-5-5-5-5-5-5-5-5-5-5-5-5-5-5-------|
-----------------------------------------------------------|


3x 3rd time ending
---------------------|---------|
---------------------|---10----|
---7-7-7-7-7-7-7-7---|---12b---|
---7-7-7-7-7-7-7-7---|---------|
---5-5-5-5-5-5-5-5---|---------|
---------------------|---------|


repeat verse and chorus


outro lead
------------------------|
---15------13------15---|
------------------------|
------------------------|
------------------------|
------------------------|
Tunning: Standard (E A D G B e)
[Intro]
(bass)
G|-----------------|-----------------|
D|-----------------|-----------------| (2x)
A|-111-11-1-11-111-|--111-11-1--1-111|
E|-----------------|-----------1-----|

[Verses]
A#5 D#5
E|------------------------------| |--------| » Guitar 1
B|------------------------------| |--------|
G|------------------------------| |---8b---|
D|--8-8-8--8-8--8--8-8--8-8-8---| |---8b---|
A|--8-8-8--8-8--8--8-8--8-8-8---| |---6b---| » FX: Distortion
E|--6-6-6--6-6--6--6-6--6-6-6---|(4x)|--------|

E|------------------------------| |--------| » Guitar 2
B|------------------------------| |---6b---|
G|------------------------------| |---8b---|
D|--8-8-8--8-8--8--8-8--8-8-8---| |--------|
A|--8-8-8--8-8--8--8-8--8-8-8---| |--------| » FX: Distortion
E|--6-6-6--6-6--6--6-6--6-6-6---|(4x)|--------|

[Chorus]
A#5 D#5
E|-------------------| |--------| » Guitar 1
B|-------------------| |--------|
G|-------------------| |---8b---| »
D|--8--8--8--8--8--8-| |---8b---|
A|--8--8--8--8--8--8-| |---6b---| » FX: Distortion
E|--6--6--6--6--6--6-|(4x)|--------|


E|-------------------| |--------| » Guitar 2
B|-------------------| |---6b---|
G|-------------------| |---8b---|
D|--8--8--8--8--8--8-| |--------|
A|--8--8--8--8--8--8-| |--------| » FX: Distortion
E|--6--6--6--6--6--6-|(4x)|--------|

[Solo]
(some random fast pick):
E|---------| » Guitar 2
B|---14b---|
G|---16b---|
D|---------|
A|---------| » FX: Distortion
E|---------|

[Ending]
A#5
E|------------------------------| » Guitar 1
B|------------------------------|
G|------------------------------|
D|--8-8-8--8-8--8--8-8--8-8-8---|
A|--8-8-8--8-8--8--8-8--8-8-8---| » FX: Distortion
E|--6-6-6--6-6--6--6-6--6-6-6---|

E|------------------------------| » Guitar 2
B|-----------------11-\9-/-11---|
G|------------------------------| » W/ Slide
D|------------------------------|
A|------------------------------| » FX: Distortion
E|------------------------------|


************************************

| b Bend
| / Slide up
| \ Slide down

************************************
Song info
Feel Good Hit Of The Summer
Queens of the Stone Age
2001
  • Rock
  • Hard Rock
Similar songs
No Way Back - Foo Fighters
The Extremist - Joe satriani
Too Fast For Love - Mötley Crüe
Doesnt Remind Me - Audioslave

Hi! Hope you enjoy backing track experience.
If you want to help us in the development of the project, feel free to donate!