00:00 / 00:00
Tabs and lyrics
Tunning: Standard (E A D G B e)
This borders on pop but i still like this song a good deal. You can really see Josh
Homme liked the Kinks in this song. This tab is in C tuning, but it's actually in E

Intro (Distortion)
G sharp
|-------------------------------------------------|
|-------------------------------------------------|
|-------------------------------------------------|
|-10-10-10-10-10-10-10-10-10-10-10-10-10-10-10-10-|
|-------------------------------------------------|
|-------------------------------------------------|
cont.
G F sharp
|-----------------------------------------------------------------|
|-----------------------------------------------------------------|
|-----------------------------------------------------------------|
|-9-9-9-9-9-9-9-9-9-9-9-9-9-9-9-9-8-8-8-8-8-8-8-8-8-8-8-8-8-8-8-8-|
|-----------------------------------------------------------------|
|-----------------------------------------------------------------|
cont.
G
|----------------------------------|
|----------------------------------|
|----------------------------------|
|-9-9-9-9-9-9-9-9-9-9-9-9-9-9-9-9--|
|----------------------------------|
|----------------------------------|

Verse
E C C sharp A G A G
|-------------------------------------------------------------------|
|-------------------------------------------------------------------|
|---------------9-9-9-9-9-9-9-12-12-12-12-12-12-12------------------|
|-6-6-6-6-6-6-6-9-9-9-9-9-9-9-12-12-12-12-12-12-12-11-11-11-9-11-9--|
|-6-6-6-6-6-6-6-7-7-7-7-7-7-7-8--8--8--8--8--8--8--11-11-11-9-11-9--|
|-4-4-4-4-4-4-4------------------------------------9--9--9--7-9--7--| 4x

(play verse riff over verse, of course)
E C C sharp A G A G
It's the Cruelest Joke to Play
I'm So High I'm Running in Place
Only a Line We Seperate So

Chorus

E I Keep on Playing Our Favorite-
|-------------------------------------------------|
|-------------------------------------------------|
|-13-13-13-13-13-13-13-13-13-13-13-13-13-13-13-13-|
|-13-13-13-13-13-13-13-13-13-13-13-13-13-13-13-13-|
|-11-11-11-11-11-11-11-11-11-11-11-11-11-11-11-11-|
|-------------------------------------------------|
G
-Song I Turn it Up While You're-
|-----------------------------------|
|-----------------------------------|
|-----------------------------------|
|-9-9-9-9-9-9-9-9-9-9-9-9-9-9-9-9-9-|
|-9-9-9-9-9-9-9-9-9-9-9-9-9-9-9-9-9-|
|-7-7-7-7-7-7-7-7-7-7-7-7-7-7-7-7-7-|
D
-Gone It's All I've Got When You're in My-
|-------------------------------------------------|
|-------------------------------------------------|
|-11-11-11-11-11-11-11-11-11-11-11-11-11-11-11-11-|
|-11-11-11-11-11-11-11-11-11-11-11-11-11-11-11-11-|
|-9--9--9--9--9--9--9--9--9--9--9--9--9--9--9--9--|
|-------------------------------------------------|
D sharp
Head And Your in My Head So I Need It
|-------------------------------------------------|
|-------------------------------------------------|
|-12-12-12-12-12-12-12-12-12-12-12-12-12-12-12-12-|
|-12-12-12-12-12-12-12-12-12-12-12-12-12-12-12-12-|
|-10-10-10-10-10-10-10-10-10-10-10-10-10-10-10-10-|
|-------------------------------------------------|

Verse II

E C C sharp A G A G
You're the Only Thing I've Got
I Can't Seem to Get Enough
Lead
|-16~------------14v~--/12v~--|
|-----------------------------|
|-----------------------------|
|-----------------------------|
|-----------------------------|
|-----------------------------|
We Collide for One Embrace So

E G
I Keep on Playin' Our Favorite Song
D
I Turn it Up While You're Gone
D sharp
It's All I Got When You're in My Head

And You're In My Head So I Need It 2x

Lead
I Keep On Playin' Our Favorite Song
|-------------------23~------19~--|
|---------------------------------|
|---------------------------------|
|---------------------------------|
|---------------------------------|
|---------------------------------|
I Turn it Up While You're Gone
|------------23~----------18~--|
|------------------------------|
|------------------------------|
|------------------------------|
|------------------------------|
|------------------------------|
It's All I Got When You're in My Head
|--------------------------18~---21~-|
|------------------------------------|
|------------------------------------|
|------------------------------------|
|------------------------------------|
|------------------------------------|
And You're In My Head So I Need It
|----------18~---19~---18~---16~-|
|--------------------------------|
|--------------------------------|
|--------------------------------|
|--------------------------------|
|--------------------------------| 2x

Solo Type Thing:

Rhythm
B G E D
|-------------------------------------------|
|-------------------------------------------|
|-8-8-8-8-8-8-------------11-11-11-11-11-11-|
|-8-8-8-8-8-8-9-9-9-6-6-6-11-11-11-11-11-11-|
|-6-6-6-6-6-6-9-9-9-6-6-6-9--9--9--9--9-9---|
|-------------7-7-7-4-4-4-------------------|
Lead
|-------------------------------------|
|-------------------------------------|
|-------------------------------------|
|-5---5-5-5-5-6-6-6-8-8-8-9---9-9-9-9-|
|-------------------------------------|
|-------------------------------------|

|----------------------------------------------|
|----------------------------------------------|
|----------------------------------------------|
|-5---5-5-5-5-6-6-6-8-8-8-9---9-9-9-9h11p9/8-9-|
|----------------------------------------------|
|----------------------------------------------|

|-------------------------------------------------|
|-------------------------------------------------|
|-------------------------------------------------|
|-5---5-5-5-5-6-6-6-8-8-8-9---9-9-9-11-11/13\11-9-|
|-------------------------------------------------|
|-------------------------------------------------|

|-------------------------|
|-------------------------|
|-------------------------|
|-5---5-5-5-5-6-6-6-8-8-8-|
|-------------------------|
|-------------------------|

Return to Verse with No Lyrics 2x

Breakdown

Rhythm (palm mute)

G sharp G
Hurry Up----------------- I -
|-----------------------------------------------------------------|
|-----------------------------------------------------------------|
|-5-5-5-5-5-5-5-5-5-5-5-5-5-5-5-5---------------------------------|
|-5-5-5-5-5-5-5-5-5-5-5-5-5-5-5-5-9-9-9-9-9-9-9-9-9-9-9-9-9-9-9-9-|
|-3-3-3-3-3-3-3-3-3-3-3-3-3-3-3-3-9-9-9-9-9-9-9-9-9-9-9-9-9-9-9-9-|
|---------------------------------7-7-7-7-7-7-7-7-7-7-7-7-7-7-7-7-|
F sharp G
Wait For------------------------ever-------------------
|-----------------------------------------------------------------|
|-----------------------------------------------------------------|
|-----------------------------------------------------------------|
|-8-8-8-8-8-8-8-8-8-8-8-8-8-8-8-8-9-9-9-9-9-9-9-9-9-9-9-9-9-9-9-9-|
|-8-8-8-8-8-8-8-8-8-8-8-8-8-8-8-8-9-9-9-9-9-9-9-9-9-9-9-9-9-9-9-9-|
|-6-6-6-6-6-6-6-6-6-6-6-6-6-6-6-6-7-7-7-7-7-7-7-7-7-7-7-7-7-7-7-7-|

Chorus
E G
I Keep on Playin' Our Favorite Song
D
I Turn it Up While You're Gone
D sharp
It's All I Got When You're in My Head

And You're In My Head So I Need It 2x

Lead
I Keep On Playin' Our Favorite Song
|-------------------23~------19~--|
|---------------------------------|
|---------------------------------|
|---------------------------------|
|---------------------------------|
|---------------------------------|
I Turn it Up While You're Gone
|------------23~----------18~--|
|------------------------------|
|------------------------------|
|------------------------------|
|------------------------------|
|------------------------------|
It's All I Got When You're in My Head
|--------------------------18~---21~-|
|------------------------------------|
|------------------------------------|
|------------------------------------|
|------------------------------------|
|------------------------------------|
And You're In My Head So I Need It
|----------18~---19~---18~---16~-|
|--------------------------------|
|--------------------------------|
|--------------------------------|
|--------------------------------|
|--------------------------------| 1x

Second Solo Type Thing

Chorus Rhythm

Lead
|------------------------------------------|
|------------------------------------------|
|-13h15-15-15-15-15-15-15--15--15-13h15p13-|
|------------------------------------------|
|------------------------------------------|
|------------------------------------------| 2x

|------------------------------------------|
|------------------------------------------|
|-13h15-15-15-15p13-13-13h15--13h15--15p13-|
|------------------------------------------|
|------------------------------------------|
|------------------------------------------|

|-------------------------------------------------|
|-------------------------------------------------|
|-15-15-15-16-16-16-18-18-18-16-16-16-15h16-15/13-|
|-------------------------------------------------|
|-------------------------------------------------|
|-------------------------------------------------|

|------------------------------------------------|
|---------------------------14--14-16-14---------|
|-13h15-15-15-15-15-15p13h15--15--------16-15-13-|
|------------------------------------------------|
|------------------------------------------------|
|------------------------------------------------|

|------------------------------------------------|
|---------------------------14--14-16/18-16-14---|
|-13h15-15-15-15-15-15p13h15--15--------------15-|
|------------------------------------------------|
|------------------------------------------------|
|------------------------------------------------|

|------------------------------------------------|
|---------------------------14--14-16-14---------|
|-13h15-15-15-15-15-15p13h15--15--------16-15-13-|
|------------------------------------------------|
|------------------------------------------------|
|------------------------------------------------|

|----------------------------------------------------|
|----------------------------------------------------|
|-15-15-13-15/16-15-16/18-16-18/20-16-15-16-15-13~~~-|
|----------------------------------------------------|
|----------------------------------------------------|
|----------------------------------------------------|

Chorus
E G
I Keep on Playin' Our Favorite Song
D
I Turn it Up While You're Gone
D sharp
It's All I Got When You're in My Head

And You're In My Head So I Need It 1x

Lead
I Keep On Playin' Our Favorite Song
|-------------------23~------19~--|
|---------------------------------|
|---------------------------------|
|---------------------------------|
|---------------------------------|
|---------------------------------|
I Turn it Up While You're Gone
|------------23~----------18~--|
|------------------------------|
|------------------------------|
|------------------------------|
|------------------------------|
|------------------------------|
It's All I Got When You're in My Head
|--------------------------18~---21~-|
|------------------------------------|
|------------------------------------|
|------------------------------------|
|------------------------------------|
|------------------------------------|
And You're In My Head So I Need It
|----------18~---19~---18~---16~-|
|--------------------------------|
|--------------------------------|
|--------------------------------|
|--------------------------------|
|--------------------------------| 2x

E Dsh
I Need It
D
I Need It
D sharp
I Need It Now

well that's it. it's a cool song, dig it?
Tunning: Standard (E A D G B e)
#----------------------------------PLEASE NOTE---------------------------------#
#This file is the author's own work and represents their interpretation of the-#
#song. You may only use this file for private study, scholarship, or research.-#
#---------------This file was downloaded from www.taborama.com-----------------#
#------------------------------------------------------------------------------#

IN MY HEAD
As recorded by Queens Of The Stone Age
(From the 2005 Album LULLABIES TO PARALYZE)

Words and Music by Josh Homme, Joey Castillo, Troy Van Leeuwen, Alain Johannes, Natasha Shneider
Transcribed by Eli Weinstein

E5 C5 C#5 A5
0 2 x x x x x 3 5 x x x x 4 6 x x x 5 7 x x x x

G5 D5 D#5
3 5 x x x x x 5 7 x x x x 6 8 x x x

Gtr I (E A D G B E) - 'Untitled'
Gtr II (E A D G B E) - 'Untitled'
Gtr III (E A D G B E) - 'Untitled'
Gtr IV (E A D G B E) - 'Untitled'

Intro
Moderately Fast Rock Q=131
(E/G#) (G)
4/4
Gtr I
E E E E E E E E E E E E E E E E E E E E E E E E E E E E E E E E
|-----------------|-----------------|-----------------|-----------------|
|-----------------|-----------------|-----------------|-----------------|
|-----------------|-----------------|-----------------|-----------------|
|-6-6-6-6-6-6-6-6-|-6-6-6-6-6-6-6-6-|-5-5-5-5-5-5-5-5-|-5-5-5-5-5-5-5-5-|
|-----------------|-----------------|-----------------|-----------------|
|-----------------|-----------------|-----------------|-----------------|


(D/F#) (D#/G)
E E E E E E E E E E E E E E E E E E E E E E E E E E E E E E E E
|-----------------|-----------------|-----------------|-----------------||
|-----------------|-----------------|-----------------|-----------------||
|-----------------|-----------------|-----------------|-----------------||
|-4-4-4-4-4-4-4-4-|-4-4-4-4-4-4-4-4-|-5-5-5-5-5-5-5-5-|-5-5-5-5-5-5-5-5-||
|-----------------|-----------------|-----------------|-----------------||
|-----------------|-----------------|-----------------|-----------------||


Verse
(E) (C)
~~~~~~~~~~~~~~~~~~~~~~~~~~~~~~~~~~~~~~~~~~~~~~~~~~~~~~~
E E E E E E E E E E E E E E E E
||--------------------------|-------------------------|
||o-------------------------|-------------------------|
||--------------------------|-------------------------|
||--------------------------|-------------------------|
||o-------------------------|-------------------------|
||---0--0--0--0--0--0--0--8-|--8--8--8--8--8--8--8--9-|
|
| Gtr II
| E E E E E E E E E E E E E E E E
||--12-12-12-12-12-12-12-12-|-12-12-12-12-12-12-12-12-|
||o-12-12-12-12-12-12-12-12-|-12-12-12-12-12-12-12-12-|
||--------------------------|-------------------------|
||--------------------------|-------------------------|
||o-------------------------|-------------------------|
||--------------------------|-------------------------|


(C#) (A)
~~~~~~~~~~~~~~~~~~~~~~~~~~~~~~~~~~~~~~~~~~~~~~~~~
E E E E E E E E E E E E E E +Q
|-------------------------|----------------------------||
|-------------------------|---------------------------o||
|-------------------------|----------------------------||
|-------------------------|----------------------------||
|-------------------------|---------------------------o||
|--9--9--9--9--9--9--9--5-|--5--5--5--3--5--3-(3)------||
|
| E E E E E E E E E E E E E E E E
|-12-12-12-12-12-12-12-12-|-12-12-12-12-12-12-12--12---||
|-12-12-12-12-12-12-12-12-|-12-12-12-12-12-12-12--12--o||
|-------------------------|----------------------------||
|-------------------------|----------------------------||
|-------------------------|---------------------------o||
|-------------------------|----------------------------||


(E) (C)
~~~~~~~~~~~~~~~~~~~~~~~~~~~~~~~~~~~~~~~~~~~~~~~~~~~~~
E E E E E E E E E E E E E E E E
|-------------------------|-------------------------|
|-------------------------|-------------------------|
|-------------------------|-------------------------|
|-------------------------|-------------------------|
|-------------------------|-------------------------|
|--0--0--0--0--0--0--0--8-|--8--8--8--8--8--8--8--9-|
|
| Gtr III
| H Q E E E e H Q
|-------------------------|-------------------------|
|-------------------------|-------------------------|
|-------------------------|-------------------------|
|-----------------------8-|--8--8-------------------|
|-----------------------7-|--7--7-------------------|
|-----------------------8-|--8--8-------------------|
|
| Gtr II
| E E E E E E E E E E E E E E E E
|-12-12-12-12-12-12-12-12-|-12-12-12-12-12-12-12-12-|
|-12-12-12-12-12-12-12-12-|-12-12-12-12-12-12-12-12-|
|-------------------------|-------------------------|
|-------------------------|-------------------------|
|-------------------------|-------------------------|
|-------------------------|-------------------------|


(C#) (A)
~~~~~~~~~~~~~~~~~~~~~~~~~~~~~~~~~~~~~~~~~~~~~~~~~
E E E E E E E E E E E E E E +Q
|-------------------------|--------------------------|
|-------------------------|--------------------------|
|-------------------------|--------------------------|
|-------------------------|--------------------------|
|-------------------------|--------------------------|
|--9--9--9--9--9--9--9--5-|--5--5--5--3--5--3-(3)----|
|
| W W
|-------------------------|--------------------------|
|-------------------------|--------------------------|
|-------------------------|--------------------------|
|-------------------------|--------------------------|
|-------------------------|--------------------------|
|-------------------------|--------------------------|
|
| E E E E E E E E E E E E E E E E
|-12-12-12-12-12-12-12-12-|-12-12-12-12-12-12-12--12-|
|-12-12-12-12-12-12-12-12-|-12-12-12-12-12-12-12--12-|
|-------------------------|--------------------------|
|-------------------------|--------------------------|
|-------------------------|--------------------------|
|-------------------------|--------------------------|


(E) (C)
Gtr I
~~~~~~~~~~~~~~~~~~~~~~~~~~~~~~~~~~~~~~~~~~~~~~~~~~~~~
E E E E E E E E E E E E E E E E
|-------------------------|-------------------------|
|-------------------------|-------------------------|
|-------------------------|-------------------------|
|-------------------------|-------------------------|
|-------------------------|-------------------------|
|--0--0--0--0--0--0--0--8-|--8--8--8--8--8--8--8--9-|
|
| Gtr II
| E E E E E E E E E E E E E E E E
|-12-12-12-12-12-12-12-12-|-12-12-12-12-12-12-12-12-|
|-12-12-12-12-12-12-12-12-|-12-12-12-12-12-12-12-12-|
|-------------------------|-------------------------|
|-------------------------|-------------------------|
|-------------------------|-------------------------|
|-------------------------|-------------------------|


(C#) (A)
~~~~~~~~~~~~~~~~~~~~~~~~~~~~~~~~~~~~~~~~~~~~~~~~~
E E E E E E E E E E E E E E +Q
|-------------------------|--------------------------||
|-------------------------|--------------------------||
|-------------------------|--------------------------||
|-------------------------|--------------------------||
|-------------------------|--------------------------||
|--9--9--9--9--9--9--9--5-|--5--5--5--3--5--3-(3)----||
|
| E E E E E E E E E E E E E E E E
|-12-12-12-12-12-12-12-12-|-12-12-12-12-12-12-12--12-||
|-12-12-12-12-12-12-12-12-|-12-12-12-12-12-12-12--12-||
|-------------------------|--------------------------||
|-------------------------|--------------------------||
|-------------------------|--------------------------||
|-------------------------|--------------------------||


Chorus
E5
Gtr I
E E E E E E E E E E E E E E E E
|-------------------------|-------------------------|
|-------------------------|-------------------------|
|-------------------------|-------------------------|
|-------------------------|-------------------------|
|--2--2--2--2--2--2--2--2-|--2--2--2--2--2--2--2--2-|
|--0--0--0--0--0--0--0--0-|--0--0--0--0--0--0--0--0-|
|
| Gtr III
| E E E E E E E E E E E E E E E E
|-------------------------|-------------------------|
|--9--9--9--9--9--9--9--9-|--9--9--9--9--9--9--9--9-|
|--9--9--9--9--9--9--9--9-|--9--9--9--9--9--9--9--9-|
|--9--9--9--9--9--9--9--9-|--9--9--9--9--9--9--9--9-|
|-------------------------|-------------------------|
|-------------------------|-------------------------|
|
| Gtr II
| E E E E E E E E E E E E E E E E
|-12-12-12-12-12-12-12-12-|-12-12-12-12-12-12-12-12-|
|-12-12-12-12-12-12-12-12-|-12-12-12-12-12-12-12-12-|
|-------------------------|-------------------------|
|-------------------------|-------------------------|
|-------------------------|-------------------------|
|-------------------------|-------------------------|


G5
E E E E E E E E E E E E E E E E
|-------------------------|-------------------------|
|-------------------------|-------------------------|
|-------------------------|-------------------------|
|-------------------------|-------------------------|
|--5--5--5--5--5--5--5--5-|--5--5--5--5--5--5--5--5-|
|--3--3--3--3--3--3--3--3-|--3--3--3--3--3--3--3--3-|
|
| E E E E E E E E E E E E E E E E
|-------------------------|-------------------------|
|-12--0--0--0--0--0--0--0-|--0--0--0--0--0--0--0-12-|
|-12--0--0--0--0--0--0--0-|--0--0--0--0--0--0--0-12-|
|-12--0--0--0--0--0--0--0-|--0--0--0--0--0--0--0-12-|
|-------------------------|-------------------------|
|-------------------------|-------------------------|
|
| E E E E E E E E E E E E E E E E
|-12-12-12-12-12-12-12-12-|-12-12-12-12-12-12-12-12-|
|-12-12-12-12-12-12-12-12-|-12-12-12-12-12-12-12-12-|
|-------------------------|-------------------------|
|-------------------------|-------------------------|
|-------------------------|-------------------------|
|-------------------------|-------------------------|


D5
E E E E E E E E E E E E E E E E
|-------------------------|-------------------------|
|-------------------------|-------------------------|
|-------------------------|-------------------------|
|--7--7--7--7--7--7--7--7-|--7--7--7--7--7--7--7--7-|
|--5--5--5--5--5--5--5--5-|--5--5--5--5--5--5--5--5-|
|-------------------------|-------------------------|
|
| E E E E E E E E E E E E E E E E
|-------------------------|-------------------------|
|--7--7--7--7--7--7--7--7-|--7--7--7--7--7--7--7--7-|
|--7--7--7--7--7--7--7--7-|--7--7--7--7--7--7--7--7-|
|--7--7--7--7--7--7--7--7-|--7--7--7--7--7--7--7--7-|
|-------------------------|-------------------------|
|-------------------------|-------------------------|
|
| E E E E E E E E E E E E E E E E
|-12-12-12-12-12-12-12-12-|-12-12-12-12-12-12-12-12-|
|-12-12-12-12-12-12-12-12-|-12-12-12-12-12-12-12-12-|
|-------------------------|-------------------------|
|-------------------------|-------------------------|
|-------------------------|-------------------------|
|-------------------------|-------------------------|


D#5
E E E E E E E E E E E E E E E E
|-------------------------|-------------------------||
|-------------------------|-------------------------||
|-------------------------|-------------------------||
|--8--8--8--8--8--8--8--8-|--8--8--8--8--8--8--8--8-||
|--6--6--6--6--6--6--6--6-|--6--6--6--6--6--6--6--6-||
|-------------------------|-------------------------||
|
| E E E E E E E E E E E E E E E E
|-------------------------|-------------------------||
|--8--8--8--8--8--8--8--8-|--8--8--8--8--8--8--8--8-||
|--8--8--8--8--8--8--8--8-|--8--8--8--8--8--8--8--8-||
|--8--8--8--8--8--8--8--8-|--8--8--8--8--8--8--8--8-||
|-------------------------|-------------------------||
|-------------------------|-------------------------||
|
| E E E E E E E E E E E E E E E E
|-12-12-12-12-12-12-12-12-|-12-12-12-12-12-12-12-12-||
|-12-12-12-12-12-12-12-12-|-12-12-12-12-12-12-12-12-||
|-------------------------|-------------------------||
|-------------------------|-------------------------||
|-------------------------|-------------------------||
|-------------------------|-------------------------||


Verse
E5 C5 C#5
E E E E E E E E E E E E E E E E
||--------------------------|-------------------------|
||o-------------------------|-------------------------|
||--------------------------|-------------------------|
||------------------------5-|--5--5--5--5--5--5--5--6-|
||o--2--2--2--2--2--2--2--3-|--3--3--3--3--3--3--3--4-|
||---0--0--0--0--0--0--0----|-------------------------|
|
| E E E E E E E E E E E E E E E E
||--------------------------|-------------------------|
||o-------------------------|-------------------------|
||--------------------------|-------------------------|
||---6--6--6--6--6--6--6--9-|--9--9--9--9--9--9--9--9-|
||o-------------------------|-------------------------|
||--------------------------|-------------------------|
|
| E E E E E E E E E E E E E E E E
||--12-12-12-12-12-12-12-12-|-12-12-12-12-12-12-12-12-|
||o-12-12-12-12-12-12-12-12-|-12-12-12-12-12-12-12-12-|
||--------------------------|-------------------------|
||--------------------------|-------------------------|
||o-------------------------|-------------------------|
||--------------------------|-------------------------|


A5 G5 A5 G5
E E E E E E E E E E E E E E +Q 3x
|-------------------------|----------------------------||
|-------------------------|---------------------------o||
|-------------------------|----------------------------||
|--6--6--6--6--6--6--6----|----------------------------||
|--4--4--4--4--4--4--4--7-|--7--7--7--5--7--5-(5)-----o||
|-----------------------5-|--5--5--5--3--5--3-(3)------||
|
| E E E E E E E E E E E E E E +Q 3x
|-------------------------|----------------------------||
|-------------------------|---------------------------o||
|-------------------------|----------------------------||
|--9--9--9--9--9--9--9----|----------------------------||
|-----------------------9-|--9--9--9--7--9--7-(7)-----o||
|-------------------------|----------------------------||
|
| E E E E E E E E E E E E E E E E 3x
|-12-12-12-12-12-12-12-12-|-12-12-12-12-12-12-12--12---||
|-12-12-12-12-12-12-12-12-|-12-12-12-12-12-12-12--12--o||
|-------------------------|----------------------------||
|-------------------------|----------------------------||
|-------------------------|---------------------------o||
|-------------------------|----------------------------||


E5 C5 C#5
Gtr I
E E E E E E E E E E E E E E E E
| | | | | | | | | | | | | | | |
/ / / / / / / / / / / / / / / /

Gtr IV
~~~~~~~~~~~~~~~~~~~~~~~~~~~~~~~~~~~~~~~~~~~~~~~~~~~~~~
W +H. +E E
|-12----------------------|-(12)----------------(12)-10-|
|-------------------------|-----------------------------|
|-------------------------|-----------------------------|
|-------------------------|-----------------------------|
|-------------------------|-----------------------------|
|-------------------------|-----------------------------|
|
| E E E E E E E E E E E E E E E E
|-------------------------|-----------------------------|
|-------------------------|-----------------------------|
|-------------------------|-----------------------------|
|--6--6--6--6--6--6--6--9-|---9---9--9--9--9--9---9---9-|
|-------------------------|-----------------------------|
|-------------------------|-----------------------------|
|
| E E E E E E E E E E E E E E E E
|-12-12-12-12-12-12-12-12-|--12--12-12-12-12-12--12--12-|
|-12-12-12-12-12-12-12-12-|--12--12-12-12-12-12--12--12-|
|-------------------------|-----------------------------|
|-------------------------|-----------------------------|
|-------------------------|-----------------------------|
|-------------------------|-----------------------------|


A5 G5 A5 G5
E E E E E E E E E E E E E E +Q
| | | | | | | | | | | | | | |
/ / / / / / / / / / / / / / /

~~~~~~~~~~~~~~~~~~~~~~~~~~~~~~~~~~~~
+H. +E E +W
|-(10)----------------(10)----|----------------------------||
|--------------------------12-|-(12)-----------------------||
|-----------------------------|----------------------------||
|-----------------------------|----------------------------||
|-----------------------------|----------------------------||
|-----------------------------|----------------------------||
|
| E E E E E E E E E E E E E E +Q
|-----------------------------|----------------------------||
|-----------------------------|----------------------------||
|-----------------------------|----------------------------||
|---9---9--9--9--9--9---9-----|----------------------------||
|---------------------------9-|---9---9--9--7--9--7-(7)----||
|-----------------------------|----------------------------||
|
| E E E E E E E E E E E E E E E E
|--12--12-12-12-12-12--12--12-|--12--12-12-12-12-12-12--12-||
|--12--12-12-12-12-12--12--12-|--12--12-12-12-12-12-12--12-||
|-----------------------------|----------------------------||
|-----------------------------|----------------------------||
|-----------------------------|----------------------------||
|-----------------------------|----------------------------||


Chorus
$
E5
E E E E E E E E E E E E E E E E
| | | | | | | | | | | | | | | |
/ / / / / / / / / / / / / / / /

>
~~~~~~~~~~~~~~~~~~~~~~~~~~~~~~~~~~~~~~~~~~~~~~~~~~~~
W +H H
||--12----------------------|-(12)----------19----------|
||o-------------------------|---------------------------|
||--------------------------|---------------------------|
||--------------------------|---------------------------|
||o-------------------------|---------------------------|
||--------------------------|---------------------------|
|
| E E E E E E E E E E E E E E E E
||--------------------------|---------------------------|
||o--9--9--9--9--9--9--9--9-|---9---9--9--9--9--9--9--9-|
||---9--9--9--9--9--9--9--9-|---9---9--9--9--9--9--9--9-|
||---9--9--9--9--9--9--9--9-|---9---9--9--9--9--9--9--9-|
||o-------------------------|---------------------------|
||--------------------------|---------------------------|
|
| E E E E E E E E E E E E E E E E
||--12-12-12-12-12-12-12-12-|--12--12-12-12-12-12-12-12-|
||o-12-12-12-12-12-12-12-12-|--12--12-12-12-12-12-12-12-|
||--------------------------|---------------------------|
||--------------------------|---------------------------|
||o-------------------------|---------------------------|
||--------------------------|---------------------------|


G5
E E E E E E E E E E E E E E E E
| | | | | | | | | | | | | | | |
/ / / / / / / / / / / / / / / /

>
~~~~~~~~~~~~~~~~~~~~~~~~~~~~~~~~~~~~~~~~~~~~
W +H H
|-15----------------------|-(15)----------19-----------|
|-------------------------|----------------------------|
|-------------------------|----------------------------|
|-------------------------|----------------------------|
|-------------------------|----------------------------|
|-------------------------|----------------------------|
|
| E E E E E E E E E E E E E E E E
|-------------------------|----------------------------|
|--0--0--0--0--0--0--0--0-|---0---0--0--0--0--0--0--0--|
|--0--0--0--0--0--0--0--0-|---0---0--0--0--0--0--0--0--|
|--0--0--0--0--0--0--0--0-|---0---0--0--0--0--0--0--0--|
|-------------------------|----------------------------|
|-------------------------|----------------------------|
|
| E E E E E E E E E E E E E E E E
|-12-12-12-12-12-12-12-12-|--12--12-12-12-12-12-12-12--|
|-12-12-12-12-12-12-12-12-|--12--12-12-12-12-12-12-12--|
|-------------------------|----------------------------|
|-------------------------|----------------------------|
|-------------------------|----------------------------|
|-------------------------|----------------------------|


D5
E E E E E E E E E E E E E E E E
| | | | | | | | | | | | | | | |
/ / / / / / / / / / / / / / / /

>
~~~~~~~~~~~~~~~~~~~~~~~~~~~~~~~~~~~~~~~~~~~~~~~~~~~~
W +H. Q
|-14----------------------|-(14)----------------15----|
|-------------------------|---------------------------|
|-------------------------|---------------------------|
|-------------------------|---------------------------|
|-------------------------|---------------------------|
|-------------------------|---------------------------|
|
| E E E E E E E E E E E E E E E E
|-------------------------|---------------------------|
|--7--7--7--7--7--7--7--7-|---7---7--7--7--7--7--7--7-|
|--7--7--7--7--7--7--7--7-|---7---7--7--7--7--7--7--7-|
|--7--7--7--7--7--7--7--7-|---7---7--7--7--7--7--7--7-|
|-------------------------|---------------------------|
|-------------------------|---------------------------|
|
| E E E E E E E E E E E E E E E E
|-12-12-12-12-12-12-12-12-|--12--12-12-12-12-12-12-12-|
|-12-12-12-12-12-12-12-12-|--12--12-12-12-12-12-12-12-|
|-------------------------|---------------------------|
|-------------------------|---------------------------|
|-------------------------|---------------------------|
|-------------------------|---------------------------|


1.,D.S.
To Coda
D#5
E E E E E E E E E E E E E E E E
| | | | | | | | | | | | | | | |
/ / / / / / / / / / / / / / / /

~~~~~~~~~~~~~~~~~~~~~~~~~~~~~~~~~~~~~~~~~~
W H H
|-17----------------------|-15----------14-----------||
|-------------------------|-------------------------o||
|-------------------------|--------------------------||
|-------------------------|--------------------------||
|-------------------------|-------------------------o||
|-------------------------|--------------------------||
|
| E E E E E E E E E E E E E E E E
|-------------------------|--------------------------||
|--8--8--8--8--8--8--8--8-|--8--8--8--8--8--8--8--8-o||
|--8--8--8--8--8--8--8--8-|--8--8--8--8--8--8--8--8--||
|--8--8--8--8--8--8--8--8-|--8--8--8--8--8--8--8--8--||
|-------------------------|-------------------------o||
|-------------------------|--------------------------||
|
| E E E E E E E E E E E E E E E E
|-12-12-12-12-12-12-12-12-|-12-12-12-12-12-12-12-12--||
|-12-12-12-12-12-12-12-12-|-12-12-12-12-12-12-12-12-o||
|-------------------------|--------------------------||
|-------------------------|--------------------------||
|-------------------------|-------------------------o||
|-------------------------|--------------------------||


Interlude
2.
D#5 B Em7/G
E E E E E E E E W
| | | | | | |
/ / / / / / /

Gtr I
~~~~~~~~~~~~~~~
H Q. E +E E E E E E E E
|-15----------14-----------||--------------------------|
|--------------------------||--------------------------|
|------------------------8-||-(8)--8--8--8--8--8--8--9-|
|------------------------x-||------x--x--x--x--x--x--x-|
|------------------------6-||-(6)--6--6--6--6--6--6--7-|
|--------------------------||--------------------------|
|
| E E E E E E E E +E E E E E E E E
|--------------------------||--------------------------|
|--8--8--8--8--8---8--8----||--------------------------|
|--8--8--8--8--8---8--8----||--------------------------|
|--8--8--8--8--8---8--8--4-||-(4)--4--4--4--4--4--4----|
|------------------------2-||-(2)--2--2--2--2--2--2--5-|
|--------------------------||------------------------3-|
|
| E E E E E E E E E E E E E E E E
|-12-12-12-12-12--12-12-12-||-17--17-17-17-17-17-17-17-|
|-12-12-12-12-12--12-12-12-||-17--17-17-17-17-17-17-17-|
|--------------------------||--------------------------|
|--------------------------||--------------------------|
|--------------------------||--------------------------|
|--------------------------||--------------------------|


B5/E Dsus4 B
W W
+E E E E +E E E E +E E E E E E E E
|----------------------------|---------------------------|
|----------------------------|---------------------------|
|-(9)--9--9-11-(11)-11-11-12-|-(12)-12-12-12-12-12-12--8-|
|------x--x--x-------x--x--x-|-------x--x--x--x--x--x--x-|
|-(7)--7--7--9--(9)--9--9-10-|-(10)-10-10-10-10-10-10--6-|
|----------------------------|---------------------------|
|
| +E E E E +E E E E +E E E E E E E E
|----------------------------|---------------------------|
|----------------------------|---------------------------|
|----------------------------|---------------------------|
|--------------------------7-|--(7)--7--7--7--7--7--7--4-|
|-(5)--5--5--2--(2)--2--2--5-|--(5)--5--5--5--5--5--5--2-|
|-(3)--3--3--0--(0)--0--0----|---------------------------|
|
| E E E E E E E E E E E E E E E E
|-17--17-17-17--17--17-17-17-|--17--17-17-17-17-17-17-17-|
|-17--17-17-17--17--17-17-17-|--17--17-17-17-17-17-17-17-|
|----------------------------|---------------------------|
|----------------------------|---------------------------|
|----------------------------|---------------------------|
|----------------------------|---------------------------|


Em7/G B5/E Dsus4
+E E E E E E E E +E E E E +E E E E
|--------------------------|----------------------------|
|--------------------------|----------------------------|
|-(8)--8--8--8--8--8--8--9-|-(9)--9--9-11-(11)-11-11-12-|
|------x--x--x--x--x--x--x-|------x--x--x-------x--x--x-|
|-(6)--6--6--6--6--6--6--7-|-(7)--7--7--9--(9)--9--9-10-|
|--------------------------|----------------------------|
|
| +E E E E E E E E +E E E E +E E E E
|--------------------------|----------------------------|
|--------------------------|----------------------------|
|--------------------------|----------------------------|
|-(4)--4--4--4--4--4--4----|--------------------------7-|
|-(2)--2--2--2--2--2--2--5-|-(5)--5--5--2--(2)--2--2--5-|
|------------------------3-|-(3)--3--3--0--(0)--0--0----|
|
| E E E E E E E E E E E E E E E E
|-17--17-17-17-17-17-17-17-|-17--17-17-17--17--17-17-17-|
|-17--17-17-17-17-17-17-17-|-17--17-17-17--17--17-17-17-|
|--------------------------|----------------------------|
|--------------------------|----------------------------|
|--------------------------|----------------------------|
|--------------------------|----------------------------|


B
|---3----|
+E E E E E E E E E
|----------------------------------|
|----------------------------------|
|-(12)-12-12-12s14s===12-11-12--8--|
|-------x--x--x-----------x--x--x--|
|-(10)-10-10-10s12s===10--9-10--6--|
|----------------------------------|
|
| +E E E E E E E E
|----------------------------------|
|----------------------------------|
|----------------------------------|
|--(7)--7--7--7-----7-----7--7--4--|
|--(5)--5--5--5-----5-----5--5--2--|
|----------------------------------|
|
| E E E E E E E E
|--17--17-17-17----17----17-17-17--|
|--17--17-17-17----17----17-17-17--|
|----------------------------------|
|----------------------------------|
|----------------------------------|
|----------------------------------|


Em7/G B5/E Dsus4
+E E E E E E E E +E E E E +E E E E
|--------------------------|----------------------------|
|--------------------------|----------------------------|
|-(8)--8--8--8--8--8--8--9-|-(9)--9--9-11-(11)-11-11-12-|
|------x--x--x--x--x--x--x-|------x--x--x-------x--x--x-|
|-(6)--6--6--6--6--6--6--7-|-(7)--7--7--9--(9)--9--9-10-|
|--------------------------|----------------------------|
|
| +E E E E E E E E +E E E E +E E E E
|--------------------------|----------------------------|
|--------------------------|----------------------------|
|--------------------------|----------------------------|
|-(4)--4--4--4--4--4--4----|--------------------------7-|
|-(2)--2--2--2--2--2--2--5-|-(5)--5--5--2--(2)--2--2--5-|
|------------------------3-|-(3)--3--3--0--(0)--0--0----|
|
| E E E E E E E E E E E E E E E E
|-17--17-17-17-17-17-17-17-|-17--17-17-17--17--17-17-17-|
|-17--17-17-17-17-17-17-17-|-17--17-17-17--17--17-17-17-|
|--------------------------|----------------------------|
|--------------------------|----------------------------|
|--------------------------|----------------------------|
|--------------------------|----------------------------|


B
+E E E E E E E E
|-----------------------------|
|-----------------------------|
|-(12)-12-12-/14-/16-14-12--8-|
|-------x--x---x---x--x--x--x-|
|-(10)-10-10-/12-/14-12-10--6-|
|-----------------------------|
|
| +E E E E E E E E
|-----------------------------|
|-----------------------------|
|-----------------------------|
|--(7)--7--7---7---7--7--7--4-|
|--(5)--5--5---5---5--5--5--2-|
|-----------------------------|
|
| E E E E E E E E
|--17--17-17--17--17-17-17-17-|
|--17--17-17--17--17-17-17-17-|
|-----------------------------|
|-----------------------------|
|-----------------------------|
|-----------------------------|


Em7/G B5/E
+E E E E E E E E +E E E E +E E E +E
|--------------------------|------------------------------||
|--------------------------|------------------------------||
|-(8)--8--8--8--8--8--8--9-|-(9)--9--9-11-(11)-11-11-(11)-||
|------x--x--x--x--x--x--x-|------x--x--x-------x--x------||
|-(6)--6--6--6--6--6--6--7-|-(7)--7--7--9--(9)--9--9--(9)-||
|--------------------------|------------------------------||
|
| +E E E E E E E E +E E E E +E E E +E
|--------------------------|------------------------------||
|--------------------------|------------------------------||
|--------------------------|------------------------------||
|-(4)--4--4--4--4--4--4----|------------------------------||
|-(2)--2--2--2--2--2--2--5-|-(5)--5--5--2--(2)--2--2--(2)-||
|------------------------3-|-(3)--3--3--0--(0)--0--0--(0)-||
|
| E E E E E E E E E E E E E E E E
|-17--17-17-17-17-17-17-17-|-17--17-17-17--17--17-17--17--||
|-17--17-17-17-17-17-17-17-|-17--17-17-17--17--17-17--17--||
|--------------------------|------------------------------||
|--------------------------|------------------------------||
|--------------------------|------------------------------||
|--------------------------|------------------------------||


Bridge
E5 C5 C#5
PM------------------------------------------------
E E E E E E E E E E E E E E E E
||--------------------------|-------------------------|
||o-------------------------|-------------------------|
||--------------------------|-------------------------|
||------------------------5-|--5--5--5--5--5--5--5--6-|
||o--2--2--2--2--2--2--2--3-|--3--3--3--3--3--3--3--4-|
||---0--0--0--0--0--0--0----|-------------------------|
|
| E E E E E E E E E E E E E E E E
||--------------------------|-------------------------|
||o-------------------------|-------------------------|
||--------------------------|-------------------------|
||---6--6--6--6--6--6--6--9-|--9--9--9--9--9--9--9--9-|
||o-------------------------|-------------------------|
||--------------------------|-------------------------|
|
| E E E E E E E E E E E E E E E E
||--12-12-12-12-12-12-12-12-|-12-12-12-12-12-12-12-12-|
||o-12-12-12-12-12-12-12-12-|-12-12-12-12-12-12-12-12-|
||--------------------------|-------------------------|
||--------------------------|-------------------------|
||o-------------------------|-------------------------|
||--------------------------|-------------------------|


A5 G5 A5 G5
---------------------------------------------|
E E E E E E E E E E E E E E +Q
|-------------------------|----------------------------||
|-------------------------|---------------------------o||
|-------------------------|----------------------------||
|--6--6--6--6--6--6--6----|----------------------------||
|--4--4--4--4--4--4--4--7-|--7--7--7--5--7--5-(5)-----o||
|-----------------------5-|--5--5--5--3--5--3-(3)------||
|
| E E E E E E E E E E E E E E +Q
|-------------------------|----------------------------||
|-------------------------|---------------------------o||
|-------------------------|----------------------------||
|--9--9--9--9--9--9--9----|----------------------------||
|-----------------------9-|--9--9--9--7--9--7-(7)-----o||
|-------------------------|----------------------------||
|
| E E E E E E E E E E E E E E E E
|-12-12-12-12-12-12-12-12-|-12-12-12-12-12-12-12--12---||
|-12-12-12-12-12-12-12-12-|-12-12-12-12-12-12-12--12--o||
|-------------------------|----------------------------||
|-------------------------|----------------------------||
|-------------------------|---------------------------o||
|-------------------------|----------------------------||


Breakdown
E5
Gtr IV
Q H Q W
|-19----------------19----|-------------------------|
|-------21----------------|-21----------------------|
|-------------------------|-------------------------|
|-------------------------|-------------------------|
|-------------------------|-------------------------|
|-------------------------|-------------------------|
|
| Gtr I
| PM------------------------------------------------
| E E E E E E E E E E E E E E E E
|-------------------------|-------------------------|
|-------------------------|-------------------------|
|-------------------------|-------------------------|
|-------------------------|-------------------------|
|--2--2--2--2--2--2--2--2-|--2--2--2--2--2--2--2--2-|
|--0--0--0--0--0--0--0--0-|--0--0--0--0--0--0--0--0-|
|
| Gtr II
| E E E E E E E E E E E E E E E E
|-12-12-12-12-12-12-12-12-|-12-12-12-12-12-12-12-12-|
|-12-12-12-12-12-12-12-12-|-12-12-12-12-12-12-12-12-|
|-------------------------|-------------------------|
|-------------------------|-------------------------|
|-------------------------|-------------------------|
|-------------------------|-------------------------|


G5
W +W
|-------------------------|---------------------------|
|-20----------------------|-(20)----------------------|
|-------------------------|---------------------------|
|-------------------------|---------------------------|
|-------------------------|---------------------------|
|-------------------------|---------------------------|
|
|-----------------------------------------------|
| E E E E E E E E E E E E E E E E
|-------------------------|---------------------------|
|-------------------------|---------------------------|
|-------------------------|---------------------------|
|-------------------------|---------------------------|
|--5--5--5--5--5--5--5--5-|---5---5--5--5--5--5--5--5-|
|--3--3--3--3--3--3--3--3-|---3---3--3--3--3--3--3--3-|
|
| E E E E E E E E E E E E E E E E
|-12-12-12-12-12-12-12-12-|--12--12-12-12-12-12-12-12-|
|-12-12-12-12-12-12-12-12-|--12--12-12-12-12-12-12-12-|
|-------------------------|---------------------------|
|-------------------------|---------------------------|
|-------------------------|---------------------------|
|-------------------------|---------------------------|


D5
W +W
|-------------------------|---------------------------|
|-19----------------------|-(19)----------------------|
|-------------------------|---------------------------|
|-------------------------|---------------------------|
|-------------------------|---------------------------|
|-------------------------|---------------------------|
|
| PM--------------------------------------------------
| E E E E E E E E E E E E E E E E
|-------------------------|---------------------------|
|-------------------------|---------------------------|
|-------------------------|---------------------------|
|--7--7--7--7--7--7--7--7-|---7---7--7--7--7--7--7--7-|
|--5--5--5--5--5--5--5--5-|---5---5--5--5--5--5--5--5-|
|-------------------------|---------------------------|
|
| E E E E E E E E E E E E E E E E
|-12-12-12-12-12-12-12-12-|--12--12-12-12-12-12-12-12-|
|-12-12-12-12-12-12-12-12-|--12--12-12-12-12-12-12-12-|
|-------------------------|---------------------------|
|-------------------------|---------------------------|
|-------------------------|---------------------------|
|-------------------------|---------------------------|


D.S. al Coda
D#5
W +W
|----------------------------|---------------------------||
|-19b20----------------------|-(19)----------------------||
|----------------------------|---------------------------||
|----------------------------|---------------------------||
|----------------------------|---------------------------||
|----------------------------|---------------------------||
|
|-----------------------------------------------------|
| E E E E E E E E E E E E E E E E
|----------------------------|---------------------------||
|----------------------------|---------------------------||
|----------------------------|---------------------------||
|--8-----8--8--8--8--8--8--8-|---8---8--8--8--8--8--8--8-||
|--6-----6--6--6--6--6--6--6-|---6---6--6--6--6--6--6--6-||
|----------------------------|---------------------------||
|
| E E E E E E E E E E E E E E E E
|-12----12-12-12-12-12-12-12-|--12--12-12-12-12-12-12-12-||
|-12----12-12-12-12-12-12-12-|--12--12-12-12-12-12-12-12-||
|----------------------------|---------------------------||
|----------------------------|---------------------------||
|----------------------------|---------------------------||
|----------------------------|---------------------------||


Guitar Solo
&
(E)
Gtrs I, III
~~~~~~~~~~~~~~~~~
E E E E E E E E +E E +E E E E E E
|-------------------------|-----------------------------|
|-------------------------|-----------------------------|
|--9h11-11-11-11-11-11-11-|-(11)-11-(11)-11-11--9-11--9-|
|-------------------------|-----------------------------|
|-------------------------|-----------------------------|
|-------------------------|-----------------------------|
|
| Gtr II
| E E E E E E E E E E E E E E E E
|-12-12-12-12-12-12-12-12-|--12--12--12--12-12-12-12-12-|
|-12-12-12-12-12-12-12-12-|--12--12--12--12-12-12-12-12-|
|-------------------------|-----------------------------|
|-------------------------|-----------------------------|
|-------------------------|-----------------------------|
|-------------------------|-----------------------------|


(G)
~~~~~~~~~~~~~~~~~
E E E E E E E E +E E +E E +E E E E
|-------------------------|-------------------------------|
|-------------------------|-------------------------------|
|--9h11-11-11-11-11-11-11-|-(11)-11-(11)-11-(11)--9-11--9-|
|-------------------------|-------------------------------|
|-------------------------|-------------------------------|
|-------------------------|-------------------------------|
|
| E E E E E E E E E E E E E E E E
|-12-12-12-12-12-12-12-12-|--12--12--12--12--12--12-12-12-|
|-12-12-12-12-12-12-12-12-|--12--12--12--12--12--12-12-12-|
|-------------------------|-------------------------------|
|-------------------------|-------------------------------|
|-------------------------|-------------------------------|
|-------------------------|-------------------------------|


(D)
~~~~~~~~~ ~~~~~~~
E E E E E E E a E +E a E +E a E +E E E E
|---------------------------|-----------------------------------|
|---------------------------|-----------------------------------|
|--9h11-11-11-11--9-11-9s11-|-(11)-9s11-(11)-9s11-(11)--9-11--9-|
|---------------------------|-----------------------------------|
|---------------------------|-----------------------------------|
|---------------------------|-----------------------------------|
|
| E E E E E E E E E E E E E E E E
|-12-12-12-12-12-12-12---12-|--12----12--12----12--12--12-12-12-|
|-12-12-12-12-12-12-12---12-|--12----12--12----12--12--12-12-12-|
|---------------------------|-----------------------------------|
|---------------------------|-----------------------------------|
|---------------------------|-----------------------------------|
|---------------------------|-----------------------------------|


(D#)
E E E a E E E a E E E E E E E E E E
|-------------------------------|--------------------------|
|-------------------------------|--------------------------|
|-11-11-11-11s12-12-12-12s14-14-|-14-12-12-12-11-12-11--9--|
|-------------------------------|--------------------------|
|-------------------------------|--------------------------|
|-------------------------------|--------------------------|
|
| E E E E E E E E E E E E E E E E
|-12-12-12----12-12-12----12-12-|-12-12-12-12-12-12-12-12--|
|-12-12-12----12-12-12----12-12-|-12-12-12-12-12-12-12-12--|
|-------------------------------|--------------------------|
|-------------------------------|--------------------------|
|-------------------------------|--------------------------|
|-------------------------------|--------------------------|


(E)
E E E E E E E E a E E E E a E E E E
|-------------------------|-------------------------------|
|-------------------------|-------------------------------|
|--9h11-11-11-11--9-11-11-|-11s14-11-14-14-14s16-14-------|
|-------------------------|-------------------------16-14-|
|-------------------------|-------------------------------|
|-------------------------|-------------------------------|
|
| E E E E E E E E E E E E E E E E
|-12-12-12-12-12-12-12-12-|----12-12-12-12----12-12-12-12-|
|-12-12-12-12-12-12-12-12-|----12-12-12-12----12-12-12-12-|
|-------------------------|-------------------------------|
|-------------------------|-------------------------------|
|-------------------------|-------------------------------|
|-------------------------|-------------------------------|


(G)
E E E E E E E E a E E E E a E E E E
|-------------------------|-------------------------------|
|-------------------------|----------------------15-------|
|--9h11-11-11-11--9-11-11-|-11s14-11-14-14-14s16----16-14-|
|-------------------------|-------------------------------|
|-------------------------|-------------------------------|
|-------------------------|-------------------------------|
|
| E E E E E E E E E E E E E E E E
|-12-12-12-12-12-12-12-12-|----12-12-12-12----12-12-12-12-|
|-12-12-12-12-12-12-12-12-|----12-12-12-12----12-12-12-12-|
|-------------------------|-------------------------------|
|-------------------------|-------------------------------|
|-------------------------|-------------------------------|
|-------------------------|-------------------------------|


(D)
E E E E E E E E a E E E E a E E E E
|-------------------------|-------------------------------|
|-------------------------|-------------------------------|
|--9h11-11-11-11--9-11-11-|-11s14-11-14-14-14s16-14-------|
|-------------------------|-------------------------16-14-|
|-------------------------|-------------------------------|
|-------------------------|-------------------------------|
|
| E E E E E E E E E E E E E E E E
|-12-12-12-12-12-12-12-12-|----12-12-12-12----12-12-12-12-|
|-12-12-12-12-12-12-12-12-|----12-12-12-12----12-12-12-12-|
|-------------------------|-------------------------------|
|-------------------------|-------------------------------|
|-------------------------|-------------------------------|
|-------------------------|-------------------------------|


(D#)
E E E a E +E E a E +E E E E E E E E E
|-----------------------------------|--------------------------||
|-----------------------------------|-------/12----------------||
|-11-11--9-11s12-(12)--9-11s14-(14)-|-12-14-----14-12-11-------||
|-----------------------------------|--------------------14-12-||
|-----------------------------------|--------------------------||
|-----------------------------------|--------------------------||
|
| E E E E E E E E E E E E E E E E
|-12-12-12----12--12--12----12--12--|-12-12--12-12-12-12-12-12-||
|-12-12-12----12--12--12----12--12--|-12-12--12-12-12-12-12-12-||
|-----------------------------------|--------------------------||
|-----------------------------------|--------------------------||
|-----------------------------------|--------------------------||
|-----------------------------------|--------------------------||


Out-Chorus
(E/Ab)
Gtr IV
>
~~~~~~~~~~~~~~~~~~~~~~~~~~~~~~~~~~~~~~~
W +H H
||--12---------------|-(12)-------19-------|
||o------------------|---------------------|
||-------------------|---------------------|
||-------------------|---------------------|
||o------------------|---------------------|
||-------------------|---------------------|
|
| Gtrs I, III
| E E E E E E E E E E E E E E E E
||-------------------|---------------------|
||o------------------|---------------------|
||-------------------|---------------------|
||---6-6-6-6-6-6-6-6-|---6--6-6-6--6-6-6-6-|
||o------------------|---------------------|
||-------------------|---------------------|


(G)
>
~~~~~~~~~~~~~~~~~~~~~~~~~~~~~~~~~~
W +H H
|-15---------------|-(15)-------19--------|
|------------------|----------------------|
|------------------|----------------------|
|------------------|----------------------|
|------------------|----------------------|
|------------------|----------------------|
|
| E E E E E E E E E E E E E E E E
|------------------|----------------------|
|------------------|----------------------|
|------------------|----------------------|
|--5-5-5-5-5-5-5-5-|---5--5-5-5--5-5-5-5--|
|------------------|----------------------|
|------------------|----------------------|


(D/F#)
>
~~~~~~~~~~~~~~~~~~~~~~~~~~~~~~~~~~~~~~~
W +H. Q
|-14---------------|-(14)-----------14---|
|------------------|---------------------|
|------------------|---------------------|
|------------------|---------------------|
|------------------|---------------------|
|------------------|---------------------|
|
| E E E E E E E E E E E E E E E E
|------------------|---------------------|
|------------------|---------------------|
|------------------|---------------------|
|--4-4-4-4-4-4-4-4-|---4--4-4-4-4-4--4-4-|
|------------------|---------------------|
|------------------|---------------------|


1.
(D#/G)
~~~~~~~~~~~~~~~~~~~~~~~~~~~~~~~~
W H H
|-17---------------|-15-------14--------||
|------------------|-------------------o||
|------------------|--------------------||
|------------------|--------------------||
|------------------|-------------------o||
|------------------|--------------------||
|
| E E E E E E E E E E E E E E E E
|------------------|--------------------||
|------------------|-------------------o||
|------------------|--------------------||
|--5-5-5-5-5-5-5-5-|--5-5-5-5--5-5-5-5--||
|------------------|-------------------o||
|------------------|--------------------||


2.
N.C.
W +W
|-17b18--------|-(17)----*|
|--------------|---------*|
|--------------|---------*|
|--------------|---------*|
|--------------|---------*|
|--------------|---------*|
|
| W +W
|--------------|---------*|
|--------------|---------*|
|--------------|---------*|
|--5-----------|--(5)----*|
|--------------|---------*|
|--------------|---------*|


Duration Legend
---------------
W - whole; H - half; Q - quarter; E - 8th; S - 16th; T - 32nd; X - 64th; a - acciaccatura
+ - note tied to previous; . - note dotted; .. - note double dotted
Uncapitalized letters represent notes that are staccato (1/2 duration)
Irregular groupings are notated above the duration line
Duration letters will always appear directly above the note/fret number it represents the
duration for. Duration letters with no fret number below them represent rests. Multi-
bar rests are notated in the form Wxn, where n is the number of bars to rest for. Low
melody durations appear below the staff

Tablature Legend
----------------
h - hammer-on
p - pull-off
b - bend
pb - pre-bend
r - bend release (if no number after the r, then release immediately)
/\ - slide into or out of (from/to "nowhere")
s - legato slide
S - shift slide
- natural harmonic
[n] - artificial harmonic
n(n) - tapped harmonic
~ - vibrato
tr - trill
T - tap
TP - trem. picking
PM - palm muting
\n/ - tremolo bar dip; n = amount to dip
\n - tremolo bar down
n/ - tremolo bar up
/n\ - tremolo bar inverted dip
= - hold bend; also acts as connecting device for hammers/pulls
- volume swell (louder/softer)
x - on rhythm slash represents muted slash
o - on rhythm slash represents single note slash

Misc Legend
-----------
| - bar
|| - double bar
||o - repeat start
o|| - repeat end
*| - double bar (ending)
: - bar (freetime)
$ - Segno
& - Coda
Tempo markers - = BPM(8/16=s8/s16), where s8 = swing 8ths, s16 = swing 16ths


***************************************************************************************
* Generated using Power Tab Editor by Brad Larsen - http://powertab.guitarnetwork.org *
***************************************************************************************


Downloaded from www.taborama.com

================================================================================
Tunning: Nashville (E A D G B E)
[Intro] x1

Strumming Pattern:Continous Downstrokes
(00:00-00:14)

E|-------------------------------------------------|
B|-------------------------------------------------|
G|13-13-13-13-13-13-13-13-13-13-13-13-13-13-13-13--|
D|X-X-X-X-X-X-X-X-X-X-X-X-X-X-X-X-X-X-X-X-X-X-X-X--|
A|11-11-11-11-11-11-11-11-11-11-11-11-11-11-11-11--|
E|-------------------------------------------------|

E|-------------------------------------------------|
B|-------------------------------------------------|
G|12-12-12-12-12-12-12-12-12-12-12-12-12-12-12-12--|
D|X-X-X-X-X-X-X-X-X-X-X-X-X-X-X-X-X-X-X-X-X-X-X-X--|
A|10-10-10-10-10-10-10-10-10-10-10-10-10-10-10-10--|
E|-------------------------------------------------|

E|-------------------------------------------------|
B|-------------------------------------------------|
G|11-11-11-11-11-11-11-11-11-11-11-11-11-11-11-11--|
D|X-X-X-X-X-X-X-X-X-X-X-X-X-X-X-X-X-X-X-X-X-X-X-X--|
A|-9--9--9--9--9--9--9--9--9--9--9--9--9--9--9--9--|
E|-------------------------------------------------|

E|-------------------------------------------------|
B|-------------------------------------------------|
G|12-12-12-12-12-12-12-12-12-12-12-12-12-12-12-12--|
D|X-X-X-X-X-X-X-X-X-X-X-X-X-X-X-X-X-X-X-X-X-X-X-X--|
A|10-10-10-10-10-10-10-10-10-10-10-10-10-10-10-10--|
E|-------------------------------------------------|


[Verse] x1

Strumming Pattern:Continous Downstrokes
(00:15-00:42)

E|--------------------------------------------------|\
B|--------------------------------------------------| |
G|-------------5-5-5-5-5-5--6-6-6-6-6-6-------------| |=X4
D|2-2-2-2-2-2--5-5-5-5-5-5--6-6-6-6-6-6--7-7-7-5/7\5| |
A|2-2-2-2-2-2--3-3-3-3-3-3--4-4-4-4-4-4--7-7-7-5/7\5| |
E|0-0-0-0-0-0----------------------------5-5-5-3/5\3|/


[Chorus] x1

Strumming Pattern:Continous Downstrokes
(00:43-00:576)

E|---| |---| |---| |---| |
B|---| |---| |---| |---| |
G|-9-| |---| |-7-| |-8-| |
D|-9-| X16 |-5-| X16 |-7-| X16 |-8-| X16 |
A|-7-| |-5-| |-5-| |-6-| |
E|---| |-3-| |---| |---| |\


[Verse] x1

Strumming Pattern:Continous Downstrokes

(00:57-1:25)


[Chorus] x2

Strumming Pattern:Continous Downstrokes

(1:26-1:53)


[Bridge] x1

Pattern: Alternate Picking

(1:54-2:13)

E|------------------------------------------|
B|------------------------------------------|
G|------------------------------------------|
D|11111111--222--444--55555555\1------------|
A|----------------------------^-------------|
E|-------------------Slide down from 5 to 1-|

E|------------------------------------------|
B|------------------------------------------|
G|------------------------------------------|
D|11111111--222--444--555-5H7P5H7P5---------|
A|------------------------------------------|
E|------------------------------------------|

E|------------------------------------------|
B|------------------------------------------|
G|------------------------------------------|
D|11111111--222--444--555-5H7-9-7-5---------|
A|------------------------------------------|
E|------------------------------------------|

E|------------------------------------------|
B|------------------------------------------|
G|------------------------------------------|
D|11111111--222--444------------------------|
A|------------------------------------------|
E|------------------------------------------|


[Chorus]

Strumming Pattern: PLAY NOTHING (Just Drums, Keyboard and Bass)

(2:14-2:42


[Chorus]

Strumming Pattern: Continous Downstrokes

(2:43-2:57)


[Solo]

(2:58-3:25)

E|--------------------| |----------------------------------------|
B|-5H77777777-7P5H7P5-| |-7-7-7--8-8-8--10-10-10--8-8-8--7-8-7-5-|
G|--------------------| |----------------------------------------|
D|--------------------| X3 |----------------------------------------|
A|--------------------| |----------------------------------------|
E|--------------------| |----------------------------------------|

E|-----------------------------------|---------------------------------|
B|-5H7777-7-5-7-10-710-10/12-10-7-5--|-5H777-7-5-7-20-7-10-12/14-12-10-|
G|-----------------------------------|---------------------------------|
D|-----------------------------------|---------------------------------|
A|-----------------------------------|---------------------------------|
E|-----------------------------------|---------------------------------|

E|-----------------------------------|----------------------------------|
B|-5H7777-7-5-7-10-710-10/12-10-7-5--|-7775-8-7-8-10-8-10-12-10-8-7-8-7-|
G|-----------------------------------|----------------------------------|
D|-----------------------------------|----------------------------------|
A|-----------------------------------|----------------------------------|
E|-----------------------------------|----------------------------------|


[Intro]

Strumming Pattern:Continous Downstrokes

(3:26-4:00)



************************************

| / Slide up
| \ Slide down
| P Pull Off
| H Hammer On

************************************
Tunning: Standard (E A D G B e)
Band: Queens of The Stone Age
Song: In My Head
Album: Lullabies To Paralyze
Year: 2005
Tuning: E Standard
Tabber: Martin Jørgensen

QOTSA allways plays in a C tuning. That dosen't mean that you
have to. Just play the song like this.

-------------------------------------------------------------
Intro:
-------------------------------------------------------------

The pattern is just downstrokes all the way.

[Guitar I ]
|-------------------------------------------------|
|-------------------------------------------------|
|13-13-13-13-13-13-13-13-13-13-13-13-13-13-13-13--|
|X-X-X-X-X-X-X-X-X-X-X-X-X-X-X-X-X-X-X-X-X-X-X-X--|
|11-11-11-11-11-11-11-11-11-11-11-11-11-11-11-11--|
|-------------------------------------------------|

[Guitar I ]
|-------------------------------------------------|
|-------------------------------------------------|
|12-12-12-12-12-12-12-12-12-12-12-12-12-12-12-12--|
|X-X-X-X-X-X-X-X-X-X-X-X-X-X-X-X-X-X-X-X-X-X-X-X--|
|10-10-10-10-10-10-10-10-10-10-10-10-10-10-10-10--|
|-------------------------------------------------|

[Guitar I ]
|-------------------------------------------------|
|-------------------------------------------------|
|11-11-11-11-11-11-11-11-11-11-11-11-11-11-11-11--|
|X-X-X-X-X-X-X-X-X-X-X-X-X-X-X-X-X-X-X-X-X-X-X-X--|
|-9--9--9--9--9--9--9--9--9--9--9--9--9--9--9--9--|
|-------------------------------------------------|

[Guitar I ]
|-------------------------------------------------|
|-------------------------------------------------|
|12-12-12-12-12-12-12-12-12-12-12-12-12-12-12-12--|
|X-X-X-X-X-X-X-X-X-X-X-X-X-X-X-X-X-X-X-X-X-X-X-X--|
|10-10-10-10-10-10-10-10-10-10-10-10-10-10-10-10--|
|-------------------------------------------------|


-------------------------------------------------------------
Verse:
-------------------------------------------------------------

I'm pretty sure that the guitar is playing the first verse
like this.

[Guitar I + II ]
|--------------------------------------------------|
|--------------------------------------------------|
|--------------------------------------------------|
|--------------------------------------------------|
|-------------3-3-3-3-3-3--4-4-4-4-4-4-------------|
|0-0-0-0-0-0----------------------------5-5-5-3-5-3|


-------------------------------------------------------------
Chorus:
-------------------------------------------------------------

[Guitar I + II ]
|------------------------------------|
|-5--------3--------3--------4-------|
|-4--------0--------2--------3-------|
|-2-(x16)--0-(x16)--0-(x16)--1-(x16)-|
|-2-----------------0--------1-------|
|------------------------------------|

-------------------------------------------------------------
Verse: 2
-------------------------------------------------------------

Listen to the song. This is the way it's played.

[Guitar I + II x4]
|----------------------------------------------------|
|----------------------------------------------------|
|-1-1-1-1-1-1--4-4-4-4-4-4--4-4-4-4-4-4--------------|
|-2-2-2-2-2-2--x-x-x-x-x-x--x-x-x-x-x-x--4-4-4-2/4\2-|
|-x-x-x-x-x-x--3-3-3-3-3-3--4-4-4-4-4-4--x-x-x-x/x\x-|
|-0-0-0-0-0-0----------------------------5-5-5-3/5\3-|


-------------------------------------------------------------
Chorus:
-------------------------------------------------------------


[Guitar I + II x2]
|------------------------------------|
|-5--------3--------3--------4-------|
|-4--------0--------2--------3-------|
|-2-(x16)--0-(x16)--0-(x16)--1-(x16)-|
|-2-----------------0--------1-------|
|------------------------------------|

-------------------------------------------------------------
Brigde:
-------------------------------------------------------------

This is the only part of the song that i really cool with 2
guitares. On the original song it's only bass and Guitar but
i've chosen to tab a guitar 2 for this part anyway.

[Guitar I ]
|-------------------------------------------------------------|
|-------------------------------------------------------------|
|-8-8-8-8-8-8-8-8--9-9-9--11-11-11--12-12-12-12-12-12-12-12\8-|
|-x-x-x-x-x-x-x-x--x-x-x---x--x--x---x--x--x--x--x--x--x--x\x-|
|-6-6-6-6-6-6-6-6--7-7-7---9--9--9--10-10-10-10-10-10-10-10\6-|
|-------------------------------------------------------------|

[Guitar I ]
|--------------------------------------------------------|
|--------------------------------------------------------|
|-8-8-8-8-8-8-8-8--9-9-9--10-10-10--12-12-12-12/14-14-12-|
|-x-x-x-x-x-x-x-x--x-x-x---x--x--x---x--x--x--x/-x--x--x-|
|-6-6-6-6-6-6-6-6--7-7-7---9--9--9--10-10-10-10/12-12-10-|
|--------------------------------------------------------|

[Guitar I ]
|-----------------------------------------------------------|
|-----------------------------------------------------------|
|-8-8-8-8-8-8-8-8--9-9-9--10-10-10--12-12-12-12/14-16-14-12-|
|-x-x-x-x-x-x-x-x--x-x-x---x--x--x---x--x--x--x/-x--x--x--x-|
|-6-6-6-6-6-6-6-6--7-7-7---9--9--9--10-10-10-10/12-14-12-10-|
|-----------------------------------------------------------|

[Guitar I ]
|----------------------------------|
|----------------------------------|
|-8-8-8-8-8-8-8-8--9-9-9--10-10-10-|
|-x-x-x-x-x-x-x-x--x-x-x---x--x--x-|
|-6-6-6-6-6-6-6-6--7-7-7---9--9--9-|
|----------------------------------|

During This Guitar II goes

[Guitar II x3]
|--------------------------------------------------|
|--------------------------------------------------|
|-4-4-4-4-4-4-4-4------------------7-7-7-7-7-7-7-7-|
|-x-x-x-x-x-x-x-x--5-5-5---3-3-3---x-x-x-x-x-x-x-x-|
|-2-2-2-2-2-2-2-2--x-x-x---x-x-x---5-5-5-5-5-5-5-5-|
|------------------3-3-3---1-1-1-------------------|

[Guitar II ]
|--------------------------------|
|--------------------------------|
|-4-4-4-4-4-4-4-4----------------|
|-x-x-x-x-x-x-x-x--5-5-5---3-3-3-|
|-2-2-2-2-2-2-2-2--x-x-x---x-x-x-|
|------------------3-3-3---1-1-1-|

And then back to the Riff from the verse:

[Guitar I + II x2]
|----------------------------------------------------|
|----------------------------------------------------|
|-1-1-1-1-1-1--4-4-4-4-4-4--4-4-4-4-4-4--------------|
|-2-2-2-2-2-2--x-x-x-x-x-x--x-x-x-x-x-x--4-4-4-2/4\2-|
|-x-x-x-x-x-x--3-3-3-3-3-3--4-4-4-4-4-4--x-x-x-x/x\x-|
|-0-0-0-0-0-0----------------------------5-5-5-3/5\3-|


-------------------------------------------------------------
??? Don't know what i should call this part ???
-------------------------------------------------------------

Well this is the part where Josh goes.

"Oh, radio
I'll wait forever."

It's only the bass and the drums that's paying this part.


-------------------------------------------------------------
Chorus:
-------------------------------------------------------------


[Guitar I + II ]
|------------------------------------|
|-5--------3--------3--------4-------|
|-4--------0--------2--------3-------|
|-2-(x16)--0-(x16)--0-(x16)--1-(x16)-|
|-2-----------------0--------1-------|
|------------------------------------|

-------------------------------------------------------------
Ending Solo:
-------------------------------------------------------------

During the solo Guitar II Plays the Riff from the Chorus

[Guitar I x3][Guitar I ]
|--------------------||----------------------------------------|
|-5H77777777-7P5H7P5-||-7-7-7--8-8-8--10-10-10--8-8-8--7-8-7-5-|
|--------------------||----------------------------------------|
|--------------------||----------------------------------------|
|--------------------||----------------------------------------|
|--------------------||----------------------------------------|

[Guitar I ]
|------------------------------------|
|-5H7777-7-5-7-10-7/10-10/12-10-7-5--|
|------------------------------------|
|------------------------------------|
|------------------------------------|
|------------------------------------|

[Guitar I ]
|---------------------------------|
|-5H777-7-5-7-20-7-10-12/14-12-10-|
|---------------------------------|
|---------------------------------|
|---------------------------------|
|---------------------------------|

[Guitar I ]
|------------------------------------|
|-5H7777-7-5-7-10-7/10-10/12-10-7-5--|
|------------------------------------|
|------------------------------------|
|------------------------------------|
|------------------------------------|

[Guitar I ]
|----------------------------------|
|-7775-8-7-8-10-8-10-12-10-8-7-8-7-|
|----------------------------------|
|----------------------------------|
|----------------------------------|
|----------------------------------|

-------------------------------------------------------------
Outro:
-------------------------------------------------------------

Same as Intro:

[Guitar I ]
|-------------------------------------------------|
|-------------------------------------------------|
|13-13-13-13-13-13-13-13-13-13-13-13-13-13-13-13--|
|X-X-X-X-X-X-X-X-X-X-X-X-X-X-X-X-X-X-X-X-X-X-X-X--|
|11-11-11-11-11-11-11-11-11-11-11-11-11-11-11-11--|
|-------------------------------------------------|

[Guitar I ]
|-------------------------------------------------|
|-------------------------------------------------|
|12-12-12-12-12-12-12-12-12-12-12-12-12-12-12-12--|
|X-X-X-X-X-X-X-X-X-X-X-X-X-X-X-X-X-X-X-X-X-X-X-X--|
|10-10-10-10-10-10-10-10-10-10-10-10-10-10-10-10--|
|-------------------------------------------------|

[Guitar I ]
|-------------------------------------------------|
|-------------------------------------------------|
|11-11-11-11-11-11-11-11-11-11-11-11-11-11-11-11--|
|X-X-X-X-X-X-X-X-X-X-X-X-X-X-X-X-X-X-X-X-X-X-X-X--|
|-9--9--9--9--9--9--9--9--9--9--9--9--9--9--9--9--|
|-------------------------------------------------|

[Guitar I ]
|-------------------------------------------------|
|-------------------------------------------------|
|12-12-12-12-12-12-12-12-12-12-12-12-12-12-12-12--|
|X-X-X-X-X-X-X-X-X-X-X-X-X-X-X-X-X-X-X-X-X-X-X-X--|
|10-10-10-10-10-10-10-10-10-10-10-10-10-10-10-10--|
|-------------------------------------------------|


This song is not that hard and there isn't much to explain about
it. Just play.

Any comments or ajustments mail me at: Martin_illmatico@hotmail.com

RATE IT DAMN YOU ;D
Song info
In My Head
Queens of the Stone Age
2001
  • Rock
  • Hard Rock
  • Pop Rock
Alternative tracks
Similar songs
Blood and Roses - The Smithereens
Hard Times - Paramore
Futureal - Iron Maiden
Rhythm Of The Rain - Cascades

Hi! Hope you enjoy backing track experience.
If you want to help us in the development of the project, feel free to donate!