No One Knows - Queens of the Stone Age
00:00 / 00:00
Tabs and lyrics
Tunning: Standard (E A D G B e)
X===============================PLEASE NOTE=====================================x
X This tab belongs to its author and represents his interpretation of the song. x
X You may only use this tab for private study, scholarship, or research. x
X Do not change, deface, mutilate, or in any other way alter this tab. x
X You must email the author first if you want to use this tab on your site. x
X===============================================================================x

No One Knows
tabbed by bruno calatroni (queenofastoneage@yahoo.com)

Tuning: C F Bb Eb G C

INTRO:
|--------------------------------------------|
|--8------8------8------8--------------------|
|--9------9------9------9--------------------|
|--9------9------9------9--------------------|
|--7------7------7------7--------------------|
|--------------------------------15/---------|

MAIN RIFF:
|------------------------|------------------------------|
|-----10----10--8--------|--10----10--8-----------------|
|-------------------9----|----------------9-------------|
|------9----9---9---9----|---9----9---9---9-------------|
|------7----7---7---7----|---7----7---7---7-------------|
|--0---------------------|--------------------15/-------|

|------------------------|------------------------------|
|-----10----10--8--------|--10----10--8-----------------|
|-------------------9----|----------------9-------------|
|------9----9---9---9----|---9----9---9---9-------------|
|------7----7---7---7----|---7----7---7---7-------------|
|--0---------------------|--------------------15/-------|

|------------------------|------------------------------|
|-----10----10--8--------|--10----10/12--10-------------|
|-------------------9----|------------------------------|
|------9----9---9---9----|---9----9---------------------|
|------7----7---7---7----|---7----7---------------------|
|--0---------------------|--------------------15/-------|

|------------------------|---------------------------------|
|-----10----10--8--------|--10----10--8-------8------------|
|-------------------9----|----------------9---9---------|
|------9----9---9---9----|---9----9---9---9---9---------|
|------7----7---7---7----|---7----7---7---7----------------|
|--0---------------------|---------------------------------|

VERSE I:
|--------------------------------------------|
|-----8-------8-------8-------8--10--8-------|
|-----9-------9-------9-------9---9--9-------|
|-----9-------9-------9-------9---9--9-------|
|-----7-------7-------7-------7---7--7-------|
|-0-------0-------0-------0------------------|

|----------------------------------------------------------------|
|----------------------------------------------------------------|
|--8--8--8--8--8--8--8-------12--12--12--12--12--12--12--12------|
|--9--9--9--9--9--9--9--7h9--13--13--13--13--13--13--13--13------|
|--9--9--9--9--9--9--9--7h9--13--13--13--13--13--13--13--13------|
|--7--7--7--7--7--7--7--7----11--11--11--11--11--11--11--11------|

|------------------------|------------------------------|
|-----10----10--8--------|--10----10--8-----------------|
|-------------------9----|----------------9-------------|
|------9----9---9---9----|---9----9---9---9-------------|
|------7----7---7---7----|---7----7---7---7-------------|
|--0---------------------|--------------------15/-------|

|------------------------|---------0-----------|
|-----10----10--8--------|---8-----4bend-------|
|-------------------9----|---------------------|
|------9----9---9---9----|---9-----------------|
|------7----7---7---7----|---7-----------------|
|--0---------------------|---------------------|

VERSE II:
|--------------------------------------------|
|-----8-------8-------8-------8--10--8-------|
|-----9-------9-------9-------9---9--9-------|
|-----9-------9-------9-------9---9--9-------|
|-----7-------7-------7-------7---7--7-------|
|-0-------0-------0-------0------------------|

|--------------------------------------------------------------------------|
|-----10------10------10------10-------------------------------------------|
|--8---8---8---8---8---8---8---8-------12--12--12--12--12--12--12--12------|
|--------------------------------------13--13--13--13--13--13--13--13------|
|--9---9---9---9---9---9---9---9---9-/-13--13--13--13--13--13--13--13------|
|--7---7---7---7---7---7---7---7---7-/-11--11--11--11--11--11--11--11------|

|------------------------|-----------------------------------|
|-----10----10--8--------|--10----10-------------------------|
|-------------------9----|-----------------------------------|
|------9----9---9---9----|---9----9--------------------------|
|------7----7---7---7----|---7----7-----------7--------------|
|--0---------------------|--------------0h5/7h9---9p7p-0-------|

|------------------------|------------------------------|
|-----10----10--8--------|--10----10--8-----------------|
|-------------------9----|----------------9-------------|
|------9----9---9---9----|---9----9---9---9-------------|
|------7----7---7---7----|---7----7---7---7-------------|
|--0---------------------|--------------------15/-------|

|----------------------------7----------------------------------------------|
|-----10------10------10--10----10------------------------------------------|
|--8---8---8---8---8---8---8----8-------12--12--12--12--12--12--12--12------|
|---------------------------------------13--13--13--13--13--13--13--13------|
|--9---9---9---9---9---9---9----9---9-/-13--13--13--13--13--13--13--13------|
|--7---7---7---7---7---7---7----7---7-/-11--11--11--11--11--11--11--11------|

|------------------------|-----------------------12------|
|-----10----10--8--------|--10----10--8----10b-----------|
|-------------------9----|--------------------------9~---|
|------9----9---9---9----|---9----9---9------------------|
|------7----7---7---7----|---7----7---7------------------|
|--0---------------------|--------------------15/--------|

|------------------------|------------------------|
|-----10----10--8--------|--10----10--8-----------|
|-------------------9----|----------------9-------|
|------9----9---9---9----|---9----9---9---9-------|
|------7----7---7---7----|---7----7---7---7-------|
|--0---------------------|------------------------|

CHORUS 2X
|------------------------------------------------------------------|
|------------------------------------------------------------------|
|--9--11-12-11---14--12---16--14-----------------------------------|
|----------------------------------9--7--9--7--9--7--9--7--9--7----|
|--7--9--10--9---12--10---14--12---9--7--9--7--9--7--9--7--9--7----|
|----------------------------------7--7--7--7--7--7--7--7--7--7----|

|-----------------------------------------------------------------|
|-----------------------------------------------------------------|
|--12-11--9--7---9--11--12-11-------------------------------------|
|---------------------------------9--7--9--7--9--7--9--7--9--7----|
|--10--9--7--5---7--9---10--9-----9--7--9--7--9--7--9--7--9--7----|
|---------------------------------7--7--7--7--7--7--7--7--7--7----|

|------------------------------------------------------------------|
|------------------------------------------------------------------|
|--9--11-12-11---14--12---16--14-----------------------------------|
|----------------------------------9--7--9--7--9--7--9--7--9--7----|
|--7--9--10--9---12--10---14--12---9--7--9--7--9--7--9--7--9--7----|
|----------------------------------7--7--7--7--7--7--7--7--7--7----|

|------------------------|------------------------------|
|-----10----10--8--------|--10----10--8-----------------|
|-------------------9----|----------------9-------------|
|------9----9---9---9----|---9----9---9---9-------------|
|------7----7---7---7----|---7----7---7---7-------------|
|--0---------------------|--------------------15/-------|

|------------------------|---------0-----------|
|-----10----10--8--------|---8-----4bend-------|
|-------------------9----|---------------------|
|------9----9---9---9----|---9-----------------|
|------7----7---7---7----|---7-----------------|
|--0---------------------|---------------------|

VERSE III. same as I and II with fill in's already tabbed above. figue out where they go

CHORUS

BRIDGE
|-------------------------------------------------------|
|-------------------------------------------------------|
|--9---9--9---9--9---9--9---9--9---9--9---9--9----------|
|--9---9--9---9--9---9--9---9--9---9--9---9--9----------|
|--7---7--7---7--7---7--7---7--7---7--7---7--7----------|
|--0---0--0---0--0---0--0---0--0---0--0---0--0----------|

|----------------------|
|----------------------|
|---------8------------|
|--9--10--8------------|
|--9--10--6--9--7--9---|
|--7--8------7--5--7---|

BASS SOLO
|-----------------------------------------------------------|
|-----------------------------------------------------------|
|--7---7--7---7--7---7--7---7--5h7--7--7---7--7---7--7---7--|
|-----------------------------------------------------------|

|------------------------------------------------------------|
|-----------------5h7--7--7----------------------------------|
|--5h7--7--7---7-------------5h7--7--7-----------------------|
|------------------------------------0--5h7--7--7------------|

GUITAR SOLO

BASS SOLO II

|-----------------------------------------------------|
|---0--12--0--12--0--12--0--12--0--12-----------------|

VERSE IV: same as II

end on.....

|------------------------------|
|--8------8------8------8------|
|--9------9------9------9------|
|--9------9------9------9------|
|--7------7------7------7------|
|------------------------------|




QUEENS OF THE STONE AGE LYRICS
No One Knows no one

We get some rules to follow
That and this
These and those
No one knows

We get these pills to swallow
How they stick
In your throat
Tastes like gold

Oh, what you do to me
No one knows

And I realize you’re mine
Indeed a fool of mine
And I realize you’re mine
Indeed a fool of mine
Ahh

I journey through the desert
Of the mind
With no hope
I found low

I drift along the ocean
Dead lifeboats in the sun
And come undone

Pleasently caving in
I come undone

And I realize you’re mine
Indeed a fool of mine
And I realize you’re mine
Indeed a fool and mine
Ahhh

Heaven smiles above me
What a gift there below
But no one knows

A gift that you give to me
No one knows
^^@|};0
Tunning: Standard (E A D G B e)
Queens Of The Stone Age - No One Knows

Note: this version is in standard tuning, which is not the way that
it is played on the C-D, but if you your like me and cant be doing
with tuning down to C#, or what ever Josh Homme uses, this is just
For You.


[Intro]

e|------------------------------------------------------------------|
B|------------------------------------------------------------------|
G|--10-10-10-10----------10--10-8-------10-10-8---------10-10-8-----|
D|--10-10-10-10----------10-------10----10------10------10------10--|
A|--10-10-10-10----------10-------------10--------------10----------|
E|--8--8--8--8----15\----8---------------8----------15\--8----------|

e|--------------------------------------------------------<12>---|
B|--------------------------------------------------------<12>---|
G|---10--10-8---------10-10-10b12r10------10-10-8-----10---------|
D|---10-------10------10------------------10------10--10---------|
A|---10---------------10------------------10----------10---------|
E|---8-----------15\--8--------------15\--8-----------8----------|


[Verse]

e|------------------------------------------------------------------|
B|------------------------------------------------------------------|
G|-----10----10-----10-10-8-10-8------------------------------------|
D|-----10----10-----10-10-8-10-8-x4--5-5-5-5-5-5-5-5-5--9-9-9-9-9-9-|
A|--10----10-----10----10-8-10-8-----5-5-5-5-5-5-5-5-5--9-9-9-9-9-9-|
E|--8-----8------8-----8--8-8--8-----3-3-3-3-3-3-3-3-3--7-7-7-7-7-7-|

Note:the fills in between the main riff here change after nearly every verse.
Instead of going through the whole song to show them
I`ll just list all the fills used below.
e|------------------------------------------------<12>-----|
B|------------------------------------------------<12>-----|
G|-10-10-8-----10-10-8-------------10-10-8-----10----------|
D|-10------10--10------10----------10------10--10----------|
A|-10----------10------------------10----------10----------|
E|-8-----------8-----------15\-----8-----------8-----------|

Fills:Also note that when you play this part and Josh goes straight
into another verse there will be no fill after the main riff.
e|--------------|-------------|------|-<12>-----------------------|
B|--------------|------13-----|------|-<12>-----------------------|
G|--------------|--10b--------|------|----------------------------|
D|--------------|----------10-|------|----------------------------|
A|-----6h8p6----|-------------|------|----------------------------|
E|-6/8-------8--|-------------|--15\-|----------------------------|


[Chorus]

e|------------------------------------------------------------------|
B|------------------------------------------------------------------|
G|------------------------------------------------------------------|
D|--10-x-12-x-13-x-12-x-13-x-15-x-17-x-15-10-8-10-8-10-8-10-8-10-8--|
A|-----x----x----x----x----x----x----x----10-8-10-8-10-8-10-8-10-8--|
E|--8--x-10-x-11-x-10-x-11-x-13-x-15-x-13-8--8-8--8-8--8-8--8-8--8--|

e|-------------------------------------------------------------------|
B|-------------------------------------------------------------------|
G|-------------------------------------------------------------------|
D|--10-8-10-8-10---------Back To Verse-------------------------------|
A|--10-8-10-8-10-----------------------------------------------------|
E|--8--8-8--8-8------------------------------------------------------|


[Bridge]

e|-------------------------------------------------------------------|
B|-------------------------------------------------------------------|
G|--------------------------------------------------------4----------|
D|--10-10-10-10-10-10-10-10-10-10-10-10-10-10-10-10---5-6-4-5-3-5----|
A|--10-10-10-10-10-10-10-10-10-10-10-10-10-10-10-10---5-6-2-5-3-5-x2-|
E|--8--8--8--8--8--8--8--8--8--8--8--8--8--8--8--8----3-4---3-1-3----|

e|-------------------------------------------------------------------|
B|-------------------------------------------------------------------|
G|------4----------5-------------------------------------------------|
D|--5-6-4-5-3-5----5-------------------------------------------------|
A|--5-6-2-5-3-5-x3-3-------------------------------------------------|
E|--3-4---3-1-3------------------------------------------------------|


[Solo]

e|---------------------8-8-11~-11-8-11p8-----------------------------|
B|------------8~--8-11-------------------11-8-11p8----8h11p8---------|
G|-------8-10--------------------------------------10~-------8~------|
D|--8-10-------------------------------------------------------------|
A|-------------------------------------------------------------------|
E|-------------------------------------------------------------------|

e|-------------------------------------------------------------------|
B|--8h11p8---------------8~~------8-11-11b12-----8-11-11b13----8-11--|
G|---------7~------8-10------8/10------------8/10----------8/10------|
D|------------8-10---------------------------------------------------|
A|-------------------------------------------------------------------|
E|-------------------------------------------------------------------|

e|-------------------------------------------------------------------|
B|--13b15--13-15p13-13-11--13-15p13-13-11--13-15p13-13-11--13-15p13--|
G|-------------------------------------------------------------------|
D|-------------------------------------------------------------------|
A|-------------------------------------------------------------------|
E|-------------------------------------------------------------------|

e|--------------------------------| Well thats It I hope it Helps!
B|--13-15p13-13-11--11-13-\-------|
G|--------------------------------|
D|----------------------------End-|
A|--------------------------------|
E|--------------------------------|

************************************

| x Dead note
| h Hammer-on
| p Pull-off
| r Release
| > Accented note
| b Bend
| / Slide up
| \ Slide down
| ~ Vibrato

************************************
Tunning: Standard (E A D G B e)
No One Knows-Queens Of The Stone Age
Songs For The Deaf

C F Bb Eb G C




[Intro]

C |12----12----12----12---------------------------------------------|
G |-8-----8-----8-----8------------10--10--8----10--10--8-----------|
Eb|-x-----x-----x-----x-------------x---x-----9--x---x-----9--------|
Bb|-9-----9-----9-----9-------------9---9--------9---9--------------|
F |-7-----7-----7-----7-------------7---7--------7---7--------------|
C |-----------------------12\---0-----------------------------12\---|

C |-----------------------------------------------------------------|
G |----10--10--8----10--10--8--------------10--10--8----10--10br----|
Eb|-----x---x-----9--x---x-----9------------x---x-----9--x---x------|
Bb|-----9---9--------9---9------------------9---9--------9---9------|
F |-----7---7--------7---7------------------7---7--------7---7------|
C |-0-----------------------------12\---0------------------------12\|

C |-------------------(7)---(7)---|
G |----10--10--8------(7)---(7)---|
Eb|-----x---x-----9---(7)---(7)---|
Bb|-----9---9---------------------|
F |-----7---7---------------------|
C |-0-----------------------------|


[Verse]

C |----------------------------------------------------|
G |-----8-------8-------8-------8--0---8---8-------8---|
Eb|-----x-------x-------x-------x--0---x---x-------x---|
Bb|-----9-------9-------9-------9------9---9-------9---|
F |-----7-------7-------7-------7------7---7-------7---|
C |-0-------0-------0-------0------------------0-------|

C |-----------------------------------|
G |-8---8-------8-------8-------8--0--|
Eb|-x---x-------x-------x-------x--0--|
Bb|-9---9-------9-------9-------9-----| x2
F |-7---7-------7-------7-------7-----|
C |---------0-------0-------0---------|

C |----------------------------------------|
G |10---10---10---10---10---10---10-0-10-0-|
Eb|-8----8----8----8----8----8----8----8---|
Bb|-x----x----x----x----x----x----x----x---|
F |-9----9----9----9----9----9----9----9---|
C |-7----7----7----7----7----7----7----7---|

C |----------------------------------------|
G |-8----8----8----8----8----8----8-0--8-0-|
Eb|-8----8----8----8----8----8----8----8---|
Bb|-x----x----x----x----x----x----x----x---|
F |-6----6----6----6----6----6----6----6---|
C |----------------------------------------|

1st time:

C |------------------------------------------------0-------|
G |-8---10--10--8---------------10--10--8------8---5b~~~~--|
Eb|-x----x---x-----9-------------x---x-----9---x-----------|
Bb|-9----9---9-------------------9---9---------9-----------|
F |-7----7---7-------------------7---7---------7-----------|
C |-------------------12\----0-----------------------------|

2nd time:

C |--------------------------------------------|
G |-8---10--10--8-----10---10------------------|
Eb|-x----x---x-----9---x----x------------------|
Bb|-9----9---9---------9----9------------------|
F |-7----7---7---------7----7---------5-7p5----|
C |----------------------------0--5h7-------7--|

C |--------------------------------------|
G |----10--10--8-----10--10--8-----------|
Eb|-----x---x-----9---x---x-----9--------|
Bb|-----9---9---------9---9--------------|
F |-----7---7---------7---7--------------|
C |-0------------------------------12\---|

C |----------------------------------------|
G |10---10---10---10---10---10---10-0-10-0-|
Eb|-8----8----8----8----8----8----8----8---|
Bb|-x----x----x----x----x----x----x----x---|
F |-9----9----9----9----9----9----9----9---|
C |-7----7----7----7----7----7----7----7---|

C |----------------------------------------|
G |-8----8----8----8----8----8----8-0--8-0-|
Eb|-8----8----8----8----8----8----8----8---|
Bb|-x----x----x----x----x----x----x----x---|
F |-6----6----6----6----6----6----6----6---|
C |----------------------------------------|

C |-------------------------------------12-----|
G |-8---10--10--8-----10---10--0--10b~~~-------|
Eb|-x----x---x-----9---x----x--------------9~~-|
Bb|-9----9---9---------9----9------------------|
F |-7----7---7---------7----7------------------|
C |--------------------------------------------|

C |-----------------------------------------|
G |----10--10--8-----10--10--8--------------|
Eb|-----x---x-----9---x---x-----9----9--x---|
Bb|-----9---9---------9---9----------x--x---|
F |-----7---7---------7---7----------7--x---|
C |-0---------------------------------------|


[Bridge]

C |------------------------------------------------|
G |------------------------------------------------|
Eb|-9--x-11--x--12--x-11--14--x--12--16--x--14--x--|
Bb|-x--x--x--x---x--x--x---x--x---x---x--x---x--x--|
F |-7--x--9--x--10--x--9--12--x--10--14--x--12--x--|
C |------------------------------------------------|

C |----------------------------------|
G |----------------------------------|
Eb|----------------------------------|
Bb|----------------------------------|
F |-9p0-9p0-9p0-9p0-9p0-9p0-9p0-9p0--|
C |-7p0-7p0-7p0-7p0-7p0-7p0-7p0-7p0--|

C |------------------------------------------------|
G |------------------------------------------------|
Eb|-9--x-11--x--12--x-11--14--x--12--16--x--14--x--|
Bb|-x--x--x--x---x--x--x---x--x---x---x--x---x--x--|
F |-7--x--9--x--10--x--9--12--x--10--14--x--12--x--|
C |------------------------------------------------|

C |----------------------------------|
G |----------------------------------|
Eb|----------------------------------|
Bb|----------------------------------|
F |-9p0-9p0-9p0-9p0-9p0-9p0-9p0-9p0--|
C |-7p0-7p0-7p0-7p0-7p0-7p0-7p0-7p0--|

C |---------------------------------------------------|
G |---------------------------------------------------|
Eb|-12--x-11--x--9--x--8--x--9--x-11--x--12--x-11--x--|
Bb|--x--x--x--x--x--x--x--x--x--x--x--x---x--x--x--x--|
F |-10--x--9--x--7--x--6--x--7--x--9--x--10--x--9--x--|
C |---------------------------------------------------|

C |----------------------------------|
G |----------------------------------|
Eb|----------------------------------|
Bb|----------------------------------|
F |-9p0-9p0-9p0-9p0-9p0-9p0-9p0-9p0--|
C |-7p0-7p0-7p0-7p0-7p0-7p0-7p0-7p0--|


C |-----------------------------------------|
G |-----------------------------------------|
Eb|-----------------------------------------| x2
Bb|-----------------------------------------|
F |-14-x-14-x-14-x-14-x-14-x-14-x-14-x-14-x-|
C |-12-x-12-x-12-x-12-x-12-x-12-x-12-x-12-x-|

C |-----------------------------------------|
G |-----------------------------------------|
Eb|-----------------------------------------|
Bb|------------------------------8----------|
F |-14-x-14-x-14-x-14-x----9-10--6--9--7--9-|
C |-12-x-12-x-12-x-12-x----7--8-----7--5--7-|

then

C |---------------------------------------------------------|
G |---------------------------------------------------------|
Eb|---------------------------------------------------------|
Bb|---------------------------------------------------------|
F |-9-10--6--9--7--9---9-10--6--9--7--9---9-10--6--9--7--9--|
C |-7--8-----7--5--7---7--8-----7--5--7---7--8-----7--5--7--|


Bass:

Eb|-------------------------------|
Bb|-12h14-14--14-14--14-14-14-14--| x2
F |-------------------------------|
C |-------------------------------|

Eb|------------------12h14-14--14-14--|
Bb|-12h14-14--14-14-------------------|
F |-----------------------------------|
C |-----------------------------------|

Eb|-----------------------------------|
Bb|-12h14-14--14-14-------------------|
F |-----------12-12--12h14-14--14-14--|
C |-----------------------------------|


[Guitar Solo]

C |-----0-----0------0-------0--0--------0-----0-----0-----0-----0--|
G |-5/7---7/8---8/10---10/12---12~~~~~~-12/17-17\15-15/19-19\15-15--|
Eb|-----------------------------------------------------------------|
Bb|-----------------------------------------------------------------|
F |-----------------------------------------------------------------|
C |-----------------------------------------------------------------|

C |--0------0-------------------------------------------------------|
G |--17\15--8/12----12p10\8-10~~~~-10p8p7-8~~~~-8p7\5-7~~~~-7h8p7p5-|
Eb|-----------------------------------------------------------------|
Bb|-----------------------------------------------------------------|
F |-----------------------------------------------------------------|
C |-----------------------------------------------------------------|

C |-----------------------------------------------------------------|
G |-7/12-12~~~~~------8--12b~~~------8--12b~~~------8--12b~~~-------|
Eb|----------------9--------------9--------------9------------------|
Bb|-----------------------------------------------------------------|
F |-----------------------------------------------------------------|
C |-----------------------------------------------------------------|

C |-14p11----------14p11----------14p11----------14p11--------------|
G |-------12br-----------12br-----------12br-----------12br---------|
Eb|------------12-------------12-------------12-------------12------|
Bb|-----------------------------------------------------------------|
F |-----------------------------------------------------------------|
C |-----------------------------------------------------------------|

Bass:

Eb|-----------------------------------------------------------------|
B |-----------------------------------------------------------------|
F |-----7-------7-------7-------7-------7-------7-------7-------7---|
C |-0-------0-------0-------0-------0-------0-------0-------0-------|


that’s all, just repeat figures


***********************************
| / Slide up
| \ Slide down
| h Hammer-on
| p Pull-off
| ~ Vibrato
| + Harmonic
| x Dead note
| b Bend
| br Bend release
|( ) Harmonics
***********************************


trevor jones
timmy91199@yahoo.ca
Tunning: Standard (E A D G B e)
*I haven't tabbed out the strumming pattern.
But if you just slam on the CD im sure you'll pick it up real quick*

Its standard tuning but you can tune bottom E down to C



Opening

e 3-----3-----3-----3-----------------------------------------------------------
B 4-----4-----4-----4-----------------------------------------------------------
G 5-----5-----5-----5-----------------------------------------------------------
D 5-----5-----5-----5-----------------------------------------------------------
A 3-----3-----3-----3-----------------------------------------------------------
E ------------------------------------------------------------------------------

Main Riff
(Play quick)
e 3-----3-----3--3---3-----3---3---3---3--x---x--------------------------------
B 4-----6-----6--4---4-----6---6---4---4--x---x--------------------------------
G 5-----3-----3--3---5-----3---3---3---5--x---x--------------------------------
D 5-----5-----5--5---5-----5---5---5---5--x---x--------------------------------
A 3-----3-----5--3---3-----3---3---3---3--x---x--------------------------------
E -----------------------------------------------------------------------------

For first verse play main riff 3 times then play......(riff 2)

e 3----3----3---3---3---3---3--------------------------------------------------
B 6----6----4---4---6---4---4--------------------------------------------------
G 3----3----3---5---3---3---5--------------------------------------------------
D 5----5----5---5---5---5---5--------------------------------------------------
A 3----3----3---3---3---3---3--------------------------------------------------
E -----------------------------------------------------------------------------

Then when Josh starts to sing

We get these rules to ........
e 3---3---3---3----------------------
B 4---4---4---4----------------------
G 5---5---5---5----------------------
D 5---5---5---5----------------------
A 3---3---3---3----------------------
E -----------------------------------

basically play out Cminor with the struming pattern on the CD
until Josh just stops singing,
'these and those'
when it changes to Gmajor then Bmajor

e 3-----3-----3------3-----2----2----2----2--
B 3-----3-----3------3-----4----4----4----4--
G 4-----4-----4------4-----4----4----4----4--
D 5-----5-----5------5-----4----4----4----4--
A 5-----5-----5------5-----2----2----2----2--
E 3-----3-----3------3-----------------------

Until after he sings 'know one knows'
when u go bck to the main riff once then to riff 2 once

Chorus:
e -------------------------3---3---3---3
B ------6------3-------6---3---3---3---3
G 5------------------------4---4---4---4 play x4
D -------------------------5---5---5---5
A -------------------------5---5---5---5
E -------------------------3---3---4---3

then back to main riff once then riff 2 once.
then play out the verse as in verse 1.

then play out the chorus.
then the song goes into this

(strum hard)
e ---------------------------------------
B ---------------------------------------
G ---------------------------------------
D 5---5---5---5--------------------------
A 3---3---3---3--------------------------
E 3---3---3---3--------------------------

then its quick power chords.

e -----------------------------------
B -----------------------------------
G -----------------------------------
D 3--5--6--5--3--5-------------------
A 3--5--6--5--3--5-------------------
E 1--3--4--3--1--3-------------------

then play out bass notes of Cminor again
e -----------------------------------
B -----------------------------------
G -----------------------------------
D 5---5---5---5----------------------
A 3---3---3---3----------------------
E 3---3---3---3----------------------

then back into the power chords x4 then play c minor
e -----------------------------------
B -----------------------------------
G -----------------------------------
D 3--5--6--5--3--3-------------------
A 3--5--6--5--3--5-------------------
E 1--3--4--3--1--5-------------------

then theres some bass

i havent figured out the guitar solo yet. If anyone knows it plz tab it!
I think the notes are

e ----------------------------------------
B -------3---4----6---8----9----11---13----
G ---3---5---------------------------------
D 5----------------------------------------
A -----------------------------------------
E -----------------------------------------

not in that order though.

then its another bass solo

then he plays cm for half as long as in the verses.then he plays the
rest of the verse (gmaj, bmaj)

e 3---3---3--3--2--2-----------------------------
B 4---4---3--3--4--4-----------------------------
G 5---5---4--4--4--4-----------------------------
D 5---5---5--5--4--4-----------------------------
A 3---3---5--5--2--2-----------------------------
E --------3--3-----------------------------------

then the main riff and then riff 2.

then gmaj then bmaj. Then strum cminor hard 4 times.

thats it can someone email me the solo or tab it out.
Thanx
Tunning: Standard (E A D G B e)
Artist:Queens of the Stone Age
Song:No one knows

Tabbed by:Stephane Lam
e-mail:stelam@gmail.com

Normal tuning.

I think this is an easy way to play the song. I'm not so sure about the solo, but it sounds okay.
The tab is looong because each part is a bit different from one another. It took me a whole
day to tab it out, so don't steal it and pretend you're the one who made this please..


NORMAL TUNING
\ = slide down
/ = slide up
* = palm mute
~ = vibrato
b = bend
h = hammeron



E|3--3--3--3--------------------------------------|
A|4--4--4--4--------------------------------------|
D|5--5--5--5--------------------------------------|
G|5--5--5--5--\5----------------------------------|
B|3--3--3--3--\5----------------------------------|
E|------------\3----------------------------------|

E|------------------------------------------------|
A|6--6-4-4--6--6-4-4-----6--6-4-4--6--6-4-4-------|
D|x--x-x-5--x--x-x-5-----x--x-x-5--x--x-x-5-------|
G|5--5-5-5--5--5-5-5--\5-5--5-5-5--5--5-5-5--\5---|
B|3--3-3-3--3--3-3-3--\5-3--3-3-3--3--3-3-3--\5---|
E|--------------------\3---------------------\3---|

E|---------------3-------------------(12)---------|
A|6--6-4-4--6--6-3-6-----6--6-4-4--6-(12)---------|
D|x--x-x-5--x--x---x-----x--x-x-5--x-(12)---------|
G|5--5-5-5--5--5---5--\5-5--5-5-5--5-(12)---------|
B|3--3-3-3--3--3---3--\5-3--3-3-3--3--------------|
E|--------------------\3--------------------------|

We get some rules to follow...
E|--3---3---3---3x33---3---3---3x33---------------|
A|--4---4---4---4x44---4---4---4x44---------------|
D|5-5-5-5-5-5-5-5x55-5-5-5-5-5-5x55---------------|
G|5---5---5---5-5x55-5---5---5-5x55---------------|
B|3---3---3---3-3x33-3---3---3-3x33---------------|
E|------------------------------------------------|

That and this...
E|--3---3---3x33---3---3---3x---------------------|
A|--4---4---4x44---4---4---4x---------------------|
D|5-5-5-5-5-5x55-5-5-5-5-5-5x---------------------|
G|5---5---5-5x55-5---5---5-5x---------------------|
B|3---3---3-3x33-3---3---3-3x---------------------|
E|------------------------------------------------|

Those... No one knows...
E|------------------------------------------------|
A|3-3-3-3-3-3-3-x-3-x-7-7-7-7-7-7-7-x-7-x---------|
D|4-4-4-4-4-4-4-x-4-x-8-8-8-8-8-8-8-x-8-x---------|
G|5-5-5-5-5-5-5-x-5-x-9-9-9-9-9-9-9-x-9-x---------|
B|5-5-5-5-5-5-5-x-5-x-9-9-9-9-9-9-9-x-9-x---------|
E|3-3-3-3-3-3-3-x-3-x-7-7-7-7-7-7-7-x-7-x---------|


E|3-----------------------------------------------|
A|4-6--6-4-4--6--6-4-4-----6--6-4-4--6-12b--------|
D|5-x--x-x-5--x--x-x-5-----x--x-x-5--x-12b--------|
G|5-5--5-5-5--5--5-5-5--\5-5--5-5-5--5-12b--------|
B|3-3--3-3-3--3--3-3-3--\5-3--3-3-3--3------------|
E|----------------------\3------------------------|

We get these pills to swallow
E|--3---3---3---3x33---3---3---3x33---------------|
A|--4---4---4---4x44---4---4---4x44---------------|
D|5-5-5-5-5-5-5-5x55-5-5-5-5-5-5x55---------------|
G|5---5---5---5-5x55-5---5---5-5x55---------------|
B|3---3---3---3-3x33-3---3---3-3x33---------------|
E|------------------------------------------------|

How they stick In your throat
E|--3---3---3x33---3---3-3x3x---------------------|
A|--4---4---4x44---4---4-4x4x---------------------|
D|5-5-5-5-5-5x55-5-5-5-5-5x5x---------------------|
G|5---5---5-5x55-5---5---5X5x---------------------|
B|3---3---3-3x33-3---3---3x3x---------------------|
E|------------------------------------------------|

Tastes like gold
E|------------------------------------------------|
A|--3---3---3---3-3-7-7---7---7---7X7x------------|
D|--4---4---4---4-4-8-8---8---8---8x8x------------|
G|5-5-5-5-5-5-5-5-5-9-9-9-9-9-9-9-9x9x------------|
B|5---5---5---5---5-9---9---9---9---9x------------|
E|3---3---3---3---3-7---7---7---7---7x------------|

Oh, what you do
E|3-----------------------------------------------|
A|4-6--6-4-4--6--6-4-------------6-6-4-4--6-6-4---|
D|5-x--x-x-5--x--x-x-------------x-x-x-5--x-x-x---|
G|5-5--5-5-5--5--5-5-------------5-5-5-5--5-5-5---|
B|3-3--3-3-3--3--3-3----6h8h6-\3-3-3-3-3--3-3-3---|
E|-------------------6h8--------------------------|

to me No one knows
E|------------------------------------------------|
A|--3---3---3---3-3-------------------------------|
D|--4---4---4---4-4-8-8-8-8-8-8-8-8x8x------------|
G|5-5-5-5-5-5-5-5-5-9-9-9-9-9-9-9-9x9x------------|
B|5---5---5---5---5-9-9-9-9-9-9-9-9x9x------------|
E|3---3---3---3---3-7-7-7-7-7-7-7-7x7x------------|

E|3-----------------------8-----------------------|
A|4-6--6-4-4--6--6-4-4-6b----4~ 6--6-4-4--6--6-4-4|
D|5-x--x-x-5--x--x-x---7b-------x--x-x-5--x--x-x-5|
G|5-5--5-5-5--5--5-5------------5--5-5-5--5--5-5-5|
B|3-3--3-3-3--3--3-3------------3--3-3-3--3--3-3-3|
E|------------------------------------------------|

And I realize you're
E|------------------------------------------------|
A|------------------------------------------------|
D|\-5-x-7-x-8-x-7-10-8-x-12-x-10------------------|
G|\-x-x-x-x-x-x-x-x--x-x-x--x-x-------------------|
B|\-3-x-5-x-6-x-5-8--6-x-10-x-8-------------------|
E|------------------------------------------------|

mine
E|------------------------------------------------|
A|------------------------------------------------|
D|------------------------------------------------|
G|x5x5x5x5x5x5x5x5--------------------------------|
B|x5x5x5x5x5x5x5x5--------------------------------|
E|x3x3x3x3x3x3x3x3--------------------------------|

indeed a fool of
E|------------------------------------------------|
A|------------------------------------------------|
D|x-5-x-7-x-8-x-7-10-8-x-12-x-10------------------|
G|x-x-x-x-x-x-x-x-x--x-x-x--x-x-------------------|
B|x-3-x-5-x-6-x-5-8--6-x-10-x-8-------------------|
E|------------------------------------------------|

mine
E|------------------------------------------------|
A|------------------------------------------------|
D|------------------------------------------------|
G|x5x5x5x5x5x5x5x5--------------------------------|
B|x5x5x5x5x5x5x5x5--------------------------------|
E|x3x3x3x3x3x3x3x3--------------------------------|

And I realize you're
E|------------------------------------------------|
A|------------------------------------------------|
D|------------------------------------------------|
G|x-8-x-7-x-5-x-4-x-5-x-7-x-8-x-7-----------------|
B|x-x-x-x-x-x-x-x-x-x-x-x-x-x-x-x-----------------|
E|x-6-x-5-x-3-x-2-x-3-x-5-x-6-x-5-----------------|

mine
E|------------------------------------------------|
A|------------------------------------------------|
D|------------------------------------------------|
G|x5x5x5x5x5x5x5x5--------------------------------|
B|x5x5x5x5x5x5x5x5--------------------------------|
E|x3x3x3x3x3x3x3x3--------------------------------|

Indeed a fool of
E|------------------------------------------------|
A|------------------------------------------------|
D|x-5-x-7-x-8-x-7-10-8-x-12-x-10------------------|
G|x-x-x-x-x-x-x-x-x--x-x-x--x-x-------------------|
B|x-3-x-5-x-6-x-5-8--6-x-10-x-8-------------------|
E|------------------------------------------------|

mine Ahh
E|------------------------------------------------|
A|------------------------------------------------|
D|------------------------------------------------|
G|x5x5x5x5x5x5x5x5-\5-----------------------------|
B|x5x5x5x5x5x5x5x5-\5-----------------------------|
E|x3x3x3x3x3x3x3x3-\3-----------------------------|

E|------------------------------------------------|
A|6--6-4-4--6--6-4-4-----6--6-4-4--6-12b----------|
D|x--x-x-5--x--x-x-5-----x--x-x-5--x-12b----------|
G|5--5-5-5--5--5-5-5--\5-5--5-5-5--5-12b----------|
B|3--3-3-3--3--3-3-3--\5-3--3-3-3--3--------------|
E|--------------------\3--------------------------|

I journey through the desert
E|--3---3---3---3x33---3---3---3x33---------------|
A|--4---4---4---4x44---4---4---4x44---------------|
D|5-5-5-5-5-5-5-5x55-5-5-5-5-5-5x55---------------|
G|5---5---5---5-5x55-5---5---5-5x55---------------|
B|3---3---3---3-3x33-3---3---3-3x33---------------|
E|------------------------------------------------|

Of the mind With no hope
E|--3---3---3x33---3x3-3-3x3x---------------------|
A|--4---4---4x44---4x4-4-4x4x---------------------|
D|5-5-5-5-5-5x55-5-5x5-5-5x5x---------------------|
G|5---5---5-5x55-5-5x5-5-5X5x---------------------|
B|3---3---3-3x33-3-3x3-3-3x3x---------------------|
E|------------------------------------------------|

I found low
E|------------------------------------------------|
A|--3---3---3---3-3-7-7---7---7---7X7x------------|
D|--4---4---4---4-4-8-8---8---8---8x8x------------|
G|5-5-5-5-5-5-5-5-5-9-9-9-9-9-9-9-9x9x------------|
B|5---5---5---5---5-9---9---9---9---9x------------|
E|3---3---3---3---3-7---7---7---7---7x------------|

E|3-----------------------------------------------|
A|4-6--6-4-4--6--6-4-------------6-6-4-4--6-(12)--|
D|5-x--x-x-5--x--x-x-------------x-x-x-5--x-(12)--|
G|5-5--5-5-5--5--5-5-------------5-5-5-5--5-(12)--|
B|3-3--3-3-3--3--3-3----6h8h6-\3-3-3-3-3--3-------|
E|-------------------6h8--------------------------|

I drift along the ocean
E|--3---3---3---3x33---3---3---3x33---------------|
A|--4---4---4---4x44---4---4---4x44---------------|
D|5-5-5-5-5-5-5-5x55-5-5-5-5-5-5x55---------------|
G|5---5---5---5-5x55-5---5---5-5x55---------------|
B|3---3---3---3-3x33-3---3---3-3x33---------------|
E|------------------------------------------------|

Dead lifeboats in the sun
E|--3---3---3x33---3---3-3x3x---------------------|
A|--4---4---4x44---4---4-4x4x---------------------|
D|5-5-5-5-5-5x55-5-5-5-5-5x5x---------------------|
G|5---5---5-5x55-5---5---5X5x---------------------|
B|3---3---3-3x33-3---3---3x3x---------------------|
E|------------------------------------------------|

And come undone
E|------------------------------------------------|
A|--3---3---3---3-3-------------------------------|
D|--4---4---4---4-4-8-8-8-8-8-8-8-8x8x------------|
G|5-5-5-5-5-5-5-5-5-9-9-9-9-9-9-9-9x9x------------|
B|5---5---5---5---5-9-9-9-9-9-9-9-9x9x------------|
E|3---3---3---3---3-7-7-7-7-7-7-7-7x7x------------|
Pleasently
E|3-----------------------------------------------|
A|4-6--6-4-4--6--6-4-4-----6--6-4-4--6--6-4-4--6-4|
D|5-x--x-x-5--x--x-x-5-----x--x-x-5--x--x-x-5--x-x|
G|5-5--5-5-5--5--5-5-5--\5-5--5-5-5--5--5-5-5--5-5|
B|3-3--3-3-3--3--3-3-3--\5-3--3-3-3--3--3-3-3--3-3|
E|----------------------\3------------------------|

caving in I come undone
E|------------------------------------------------|
A|--3---3---3---3-3-7-7---7x7-7-7x7X7x------------|
D|--4---4---4---4-4-8-8---8x8-8-8x8x8x------------|
G|5-5-5-5-5-5-5-5-5-9-9-9-9x9-9-9x9x9x------------|
B|5---5---5---5---5-9---9-9x9-9-9x9x9x------------|
E|3---3---3---3---3-7---7-7x7-7-7x7x7x------------|

E|3-----------------------8-----------------------|
A|4-6--6-4-4--6--6-4-4-6b----4~ 6--6-4-4--6--6-4-4|
D|5-x--x-x-5--x--x-x---7b-------x--x-x-5--x--x-x-5|
G|5-5--5-5-5--5--5-5------------5--5-5-5--5--5-5-5|
B|3-3--3-3-3--3--3-3------------3--3-3-3--3--3-3-3|
E|------------------------------------------------|

And I realize you're
E|------------------------------------------------|
A|------------------------------------------------|
D|\-5-x-7-x-8-x-7-10-8-x-12-x-10------------------|
G|\-x-x-x-x-x-x-x-x--x-x-x--x-x-------------------|
B|\-3-x-5-x-6-x-5-8--6-x-10-x-8-------------------|
E|------------------------------------------------|

mine
E|------------------------------------------------|
A|------------------------------------------------|
D|------------------------------------------------|
G|x5x5x5x5x5x5x5x5--------------------------------|
B|x5x5x5x5x5x5x5x5--------------------------------|
E|x3x3x3x3x3x3x3x3--------------------------------|

Indeed a fool of
E|------------------------------------------------|
A|------------------------------------------------|
D|x-5-x-7-x-8-x-7-10-8-x-12-x-10------------------|
G|x-x-x-x-x-x-x-x-x--x-x-x--x-x-------------------|
B|x-3-x-5-x-6-x-5-8--6-x-10-x-8-------------------|
E|------------------------------------------------|

mine
E|------------------------------------------------|
A|------------------------------------------------|
D|------------------------------------------------|
G|x5x5x5x5x5x5x5x5--------------------------------|
B|x5x5x5x5x5x5x5x5--------------------------------|
E|x3x3x3x3x3x3x3x3--------------------------------|

And I realize you're
E|------------------------------------------------|
A|------------------------------------------------|
D|------------------------------------------------|
G|x-8-x-7-x-5-x-4-x-5-x-7-x-8-x-7-----------------|
B|x-x-x-x-x-x-x-x-x-x-x-x-x-x-x-x-----------------|
E|x-6-x-5-x-3-x-2-x-3-x-5-x-6-x-5-----------------|

mine
E|------------------------------------------------|
A|------------------------------------------------|
D|------------------------------------------------|
G|x5x5x5x5x5x5x5x5--------------------------------|
B|x5x5x5x5x5x5x5x5--------------------------------|
E|x3x3x3x3x3x3x3x3--------------------------------|

Indeed a fool and
E|------------------------------------------------|
A|------------------------------------------------|
D|x-5-x-7-x-8-x-7-10-8-x-12-x-10------------------|
G|x-x-x-x-x-x-x-x-x--x-x-x--x-x-------------------|
B|x-3-x-5-x-6-x-5-8--6-x-10-x-8-------------------|
E|------------------------------------------------|

mine AHHH
E|------------------------------------------------|
A|------------------------------------------------|
D|-----------------5x5x5x5x5x5x5x5x5x5x5x5x-------|
G|x5x5x5x5x5x5x5x5x5x5x5x5x5x5x5x5x5x5x5x5x-------|
B|x5x5x5x5x5x5x5x5x3x3x3x3x3x3x3x3x3x3x3x3x-------|
E|x3x3x3x3x3x3x3x3x-------------------------------|

E|------------------------------------------------|
A|------------------------------------------------|
D|----------5x5x5x5x5x5x5x5x5x5x5x5x--------------|
G|5-6-5-6-4-5x5x5x5x5x5x5x5x5x5x5x5x--------------|
B|5-6-5-6-4-3x3x3x3x3x3x3x3x3x3x3x3x--------------|
E|3-4-7-4-2---------------------------------------|

E|------------------------------------------------|
A|------------------------------------------------|
D|----------------------------------------5-------|
G|5-6-5-6-4-5-6-5-6-4-5-6-5-6-4-5-6-5-6-4-5-------| fast..
B|5-6-5-6-4-5-6-5-6-4-5-6-5-6-4-5-6-5-6-4-3-------|
E|3-4-7-4-2-3-4-7-4-2-3-4-7-4-2-3-4-7-4-2---------|

(Bass solo)
You can do something like this... not sure if it's right
E|------------------------------------------------|
A|------------------------------------------------|
D|------------------------------------------------|
G|-----------------------------------1-333-3------|
B|3-33-33-33-3-1-333-33-33-3-1-333-3---------1-333|
E|------------------------------------------------|

E|------------------------------------------------|
A|------------------------------------------------|
D|------------------------------------------------|
G|------------------------------------------------|
B|3-----------------------------------------------|
E|--1-333-----------------------------------------|


-SOLO-
In this solo, "vibrato" all you can. I'm not 100% sure I tabbed it good, but it sounds alright.
It's hard to get the same sound as in the song... it takes a while.

E|------------------------------------------------|
A|------------------------------------------------|
D|6~/8~8~8~/9~9~9~/11~11~11~/13~13~13~~ ----------|
G|------------------------------------------------|
B|------------------------------------------------|
E|------------------------------------------------|

E|------------------------------------------------|
A|------11b/13b-13b--11-11-14b/15b-15b--11-13b~ --|
D|13-13-------------------------------------------|
G|------------------------------------------------|
B|------------------------------------------------|
E|------------------------------------------------|

E|------------------------------------------------|
A|------------------------------------------------|
D|--10/12---10/12\10\8/10--8/10\8\7---------------|
G|13----------------------------------------------|
B|------------------------------------------------|
E|------------------------------------------------|

E|------------------------------------------------|
A|8\7/8\7\5/7--8\7/8\7\5/7--7/12b-----------------|
D|------------------------------------------------|
G|------------------------------------------------|
B|------------------------------------------------|
E|------------------------------------------------|

E|------------------------------------------------|
A|---6-8b/10b\-----6-8b/10b------6-8b/10b---------|
D|5/8-----------5/8----------5/8----------8-------|
G|------------------------------------------------|
B|------------------------------------------------|
E|------------------------------------------------|

E|------------------------------------------------|
A|/15-13----13-------/15-13----13-----------------|
D|-------15----12h10--------15----12h10-----------| way too fast :(
G|------------------------------------------------|
B|------------------------------------------------|
E|------------------------------------------------|

E|------------------------------------------------|
A|/15-13----13-------/15-13----13-------13--------|
D|-------15----12h10--------15----12h10-----------|
G|------------------------------------------------|
B|------------------------------------------------|
E|------------------------------------------------|

------
(bass)
Heaven smiles above me





What a gift there below
E|(12)-----3---3---3---3x33---3---3---3x33--------|
A|(12)-----4---4---4---4x44---4---4---4x44--------|
D|(12)---5-5-5-5-5-5-5-5x55-5-5-5-5-5-5x55--------|
G|----\5-5---5---5---5-5x55-5---5---5-5x55--------|
B|----\3-3---3---3---3-3x33-3---3---3-3x33--------|
E|----\3------------------------------------------|

But no one knows
E|------------------------------------------------|
A|--3---3---3---3-3-7-7---7---7---7X7x------------|
D|--4---4---4---4-4-8-8---8---8---8x8x------------|
G|5-5-5-5-5-5-5-5-5-9-9-9-9-9-9-9-9x9x------------|
B|5---5---5---5---5-9---9---9---9---9x------------|
E|3---3---3---3---3-7---7---7---7---7x------------|
A gift that you give
E|-------------------(12)-------------------------|
A|6--6-4-4--6--6-4-4-(12)-4-6--6-4-4--6--6-4-4-6-4|
D|x--x-x-5--x--x-x-5-(12)-3-x--x-x-5--x--x-x-5-x-x|
G|5--5-5-5--5--5-5-5------3-5--5-5-5--5--5-5-5-5-5|
B|3--3-3-3--3--3-3-3------5-3--3-3-3--3--3-3-3-3-3|
E|------------------------------------------------|

to me No one knows
E|------------------------------------------------|
A|3-3-3-3-3-3-3-x-3-x-7-7-7-7-7-7-7-x-7-x---------|
D|4-4-4-4-4-4-4-x-4-x-8-8-8-8-8-8-8-x-8-x---------| slowly release palm mute
G|5-5-5-5-5-5-5-x-5-x-9-9-9-9-9-9-9-x-9-x---------|
B|5-5-5-5-5-5-5-x-5-x-9-9-9-9-9-9-9-x-9-x---------|
E|3-3-3-3-3-3-3-x-3-x-7-7-7-7-7-7-7-x-7-x---------|
* * * *

The end.
Tunning: Standard (E A D G B e)
NO ONE KNOWS
As recorded by Queens Of The Stone Age
(From the 2002 Album SONGS FOR THE DEAF)

Words and Music by Josh Homme, Nick Oliveri & Mark Lanegan
Transcribed by www.mikesguitarsite.co.uk

Gtr I (C F Bb Eb G C) - 'Josh Homme - Rhythm w/light dist'
Gtr II (C F Bb Eb G C) - 'Josh Homme - Rhythm w/heavy dist'
Gtr III (C F Bb Eb G C) - 'Synth arr. for gtr.'


[Intro]

Q=173(8=s8)
4/4
Gtr I
|-12----12----|-12----12-------|----------------|------------------|
|--8-----8----|--8-----8-------|----10--10-8----|-10--10-8---------|
|--x-----x----|--x-----x-------|-----x---x---9--|--x---x---9-------|
|--9-----9----|--9-----9-------|-----9---9------|--9---9-----------|
|--7-----7----|--7-----7-------|-----7---7------|--7---7-----------|
|-------------|-----------12\--|-0--------------|-------------12\--|


|----------------|------------------|
|----10--10-8----|-10--10-8---------|
|-----x---x---9--|--x---x---9-------|
|-----9---9------|--9---9-----------|
|-----7---7------|--7---7-----------|
|-0--------------|-------------12\--|


|----------------|------------------------------|
|----10--10-8----|-10--10b11.5==(10)r(10)-------|
|-----x---x---9--|--x---x-----------------------|
|-----9---9------|--9---9-----------------------|
|-----7---7------|--7---7-----------------------|
|-0--------------|-------------------------12\--|


[Verses]

$
|----------------|-<7>-----------||--------------|--------------|
|----10--10-8----|-<7>--<7>------||o----8-----8--|----8-------0-|
|-----x---x---9--|-<7>--<7>------||-----x-----x--|----x-------0-|
|-----9---9------|---------------||-----9-----9--|----9---------|
|-----7---7------|---------------||o----7-----7--|----7---------|
|-0--------------|---------------||--0-----0-----|-0-----0--0---|


|-------------|--------------|-------------|--------------|
|-8--8-----8--|----8-----8-0-|-8--8-----8--|----8-----8-0-|
|-x--x-----x--|----x-----x-0-|-x--x-----x--|----x-----x-0-|
|-9--9-----9--|----9-----9---|-9--9-----9--|----9-----9---|
|-7--7-----7--|----7-----7---|-7--7-----7--|----7-----7---|
|-------0-----|-0-----0------|-------0-----|-0-----0------|


|-------------|--------------|-----------------|-------------------|
|-8--8-----8--|----8-----8-0-|-10--10--10--10--|-10--10--10-0-10-0-|
|-x--x-----x--|----x-----x-0-|--8---8---8---8--|--8---8---8----8---|
|-9--9-----9--|----9-----9---|--x---x---x---x--|--x---x---x----x---|
|-7--7-----7--|----7-----7---|--9---9---9---9--|--9---9---9----9---|
|-------0-----|-0-----0------|--7---7---7---7--|--7---7---7----7---|


1.
|-------------|---------------|----------------|-------------------------|
|-8--8--8--8--|-8--8--8-0-8-0-|-8--10--10-8----|-10--10-8----------------|
|-8--8--8--8--|-8--8--8---8---|-x---x---x---9--|--x---x---9--------------|
|-x--x--x--x--|-x--x--x---x---|-9---9---9------|--9---9------------------|
|-6--6--6--6--|-6--6--6---6---|-7---7---7------|--7---7------------------|
|-------------|---------------|----------------|----------------12\------|
|
|-------------|---------------|----------------|-------------------------|
|-------------|---------------|----------------|-10--10------------------|
|-------------|---------------|----------------|--x---x------------------|
|-------------|---------------|----------------|--9---9------------------|
|-------------|---------------|----------------|--7---7-------5--7p5-----|
|-------------|---------------|----------------|--------0-5h7--------7---|


|----------------|-----0---------------||
|----10--10-8----|-8---5pb5.5r===(5)--o||
|-----x---x---9--|-x-------------------||
|-----9---9------|-9-------------------||
|-----7---7------|-7------------------o||
|-0--------------|---------------------||
|
|----------------|---------------------||
|----------------|-8--<7>-------------o||
|----------------|-7--<7>--------------||
|----------------|-9-------------------||
|----------------|-7------------------o||
|----------------|---------------------||


2.
|----------------|--------------------------|
|-8--10--10-8----|-10--10-------------------|
|-x---x---x---9--|--x---x-------------------|
|-9---9---9------|--9---9-------------------|
|-7---7---7------|--7---7-------5--7p=5-----|
|----------------|--------0-5h7---------7---|
|
|----------------|--------------------------|
|----------------|-10--10-8-----------------|
|----------------|--x---x---9---------------|
|----------------|--9---9-------------------|
|----------------|--7---7-------------------|
|----------------|----------------17\-------|


|----------------|------------------|-----------------|-------------------|
|----10--10-8----|-10--10-8---------|-10--10--10--10--|-10--10--10-0-10-0-|
|-----x---x---9--|--x---x---9-------|--8---8---8---8--|--8---8---8----8---|
|-----9---9------|--9---9-----------|--x---x---x---x--|--x---x---x----x---|
|-----7---7------|--7---7-----------|--9---9---9---9--|--9---9---9----9---|
|-0--------------|-------------12\--|--7---7---7---7--|--7---7---7----7---|


~
|-------------|---------------|----------------|----------------12----|
|-8--8--8--8--|-8--8--8-0-8-0-|-8--10--10-8----|-10--10-0-10b12-------|
|-8--8--8--8--|-8--8--8---8---|-x---x---x---9--|--x---x------------9--|
|-x--x--x--x--|-x--x--x---x---|-9---9---9------|--9---9---------------|
|-6--6--6--6--|-6--6--6---6---|-7---7---7------|--7---7---------------|
|-------------|---------------|----------------|----------------------|


[Bridge]

|----------------|-----------------||--------------------|---------------------|
|----10--10-8----|-10--10-8--------||--------------------|---------------------|
|-----x---x---9--|--x---x---9--9-x-||-9-x-11-x-12-x-11-x-|-14-x-12-x-16-x-14-x-|
|-----9---9------|--9---9------x-x-||-x-x--x-x--x-x--x-x-|--x-x--x-x--x-x--x-x-|
|-----7---7------|--7---7------7-x-||-7-x--9-x-10-x--9-x-|-12-x-10-x-14-x-12-x-|
|-0--------------|-----------------||--------------------|---------------------|


Gtrs I, II
|-----------------|-----------------|-----------------|
|-----------------|-----------------|-----------------|
|-----------------|-----------------|-----------------|
|-----------------|-----------------|-----------------|
|-9p0-9p0-9p0-9p0-|-9p0-9p0-9p0-9p0-|-9p0-9p0-9p0-9p0-|
|-7p0-7p0-7p0-7p0-|-7p0-7p0-7p0-7p0-|-7p0-7p0-7p0-7p0-|


|-----------------|-----------------|------------------|
|-----------------|-----------------|------------------|
|-----------------|-----------------|------------------|
|-----------------|-----------------|------------------|
|-9p0-9p0-9p0-9p0-|-9p0-9p0-9p0-9p0-|-9p0-9p0-9p0-9p0--|
|-7p0-7p0-7p0-7p0-|-7p0-7p0-7p0-7p0-|-7p0-7p0-7p0-7p0--|


|-------------------|--------------------|-----------------|-----------------|
|-------------------|--------------------|-----------------|-----------------|
|-12-x-11-x-9-x-8-x-|-9-x-11-x-12-x-11-x-|-----------------|-----------------|
|--x-x--x-x-x-x-x-x-|-x-x--x-x--x-x--x-x-|-----------------|-----------------|
|-10-x--9-x-7-x-6-x-|-7-x--9-x-10-x--9-x-|-9p0-9p0-9p0-9p0-|-9p0-9p0-9p0-9p0-|
|-------------------|--------------------|-7p0-7p0-7p0-7p0-|-7p0-7p0-7p0-7p0-|


|--------------------|---------------------|
|--------------------|---------------------|
|-9-x-11-x-12-x-11-x-|-14-x-12-x-16-x-14-x-|
|-x-x--x-x--x-x--x-x-|--x-x--x-x--x-x--x-x-|
|-7-x--9-x-10-x--9-x-|-12-x-10-x-14-x-12-x-|
|--------------------|---------------------|



[To Coda]

|-----------------|-----------------||
|-----------------|-----------------||
|-----------------|-----------------||
|-----------------|-----------------||
|-9p0-9p0-9p0-9p0-|-9p0-9p0-9p0-9p0-||
|-7p0-7p0-7p0-7p0-|-7p0-7p0-7p0-7p0-||


[D.S. al Coda]

Gtr I
|----------------|------------------|----------------|----0--------------||
|----10--10-8----|-10--10-8---------|----10--10-8----|----5pb5.5r===(5)--||
|-----x---x---9--|--x---x---9-------|-----x---x---9--|-------------------||
|-----9---9------|--9---9-----------|-----9---9------|-9-----------------||
|-----7---7------|--7---7-----------|-----7---7------|-7-----------------||
|-0--------------|-------------12\--|-0--------------|-------------------||


&
Gtrs I, II
||----------------------|---------------------|
||o---------------------|---------------------|
||----------------------|---------------------|
||----------------------|---------------------|
||o-14-x-14-x-14-x-14-x-|-14-x-14-x-14-x-14-x-|
||--12-x-12-x-12-x-12-x-|-12-x-12-x-12-x-12-x-|


|---------------------|----------------||
|---------------------|---------------o||
|---------------------|----------------||
|---------------------|------8---------||
|-14-x-14-x-14-x-14-x-|-9-10-6-9-7-9--o||
|-12-x-12-x-12-x-12-x-|-7--8---7-5-7---||


|--------------|--------------|--------------||-----------|
|--------------|--------------|--------------||-----------|
|--------------|--------------|--------------||-----------|
|------8-------|------8-------|------8-------||-----------|
|-9-10-6-9-7-9-|-9-10-6-9-7-9-|-9-10-6-9-7-9-||-14--------|
|-7--8---7-5-7-|-7--8---7-5-7-|-7--8---7-5-7-||-12--------|


|---------|---------|-----||
|---------|---------|-----||
|---------|---------|-----||
|---------|---------|-----||
|---------|---------|-----||
|---------|---------|-----||


[Guitar Solo]

Gtr II
~~~
|-----0-----0------0-------0-|--0------0-----0----|--0-----0-----0---0----|
|-5s7---7s8---8s10---10s12---|-12-----12s17-17s15-|-15s19-19s15-15--17s15-|
|----------------------------|--------------------|-----------------------|
|----------------------------|--------------------|-----------------------|
|----------------------------|--------------------|-----------------------|
|----------------------------|--------------------|-----------------------|
|
| Gtr III
|----------------------------|--------------------|-----------------------|
|----------------------------|--------------------|-----------------------|
|----------------------------|--------------------|-----------------------|
|----------------------------|--------------------|-----------------------|
|----------------------------|--------------------|--0--------------------|
|-0--------------------------|-(0)----------------|-----------------------|


~~ ~~~~
|-0--------------------|-----------------|
|-8s12-(12)----12p10s8-|-10----10p8s7-8--|
|----------------------|-----------------|
|----------------------|-----------------|
|----------------------|-----------------|
|----------------------|-----------------|
|
|----------------------|-----------------|
|----------------------|--5--------------|
|----------------------|--4--------------|
|----------------------|--2--------------|
|-2--------------------|-----------------|
|----------------------|-----------------|


~~~~~ ~ ~~~~~~~
|-----------------|----------------------|
|-(8)--8p7s5-7----|-7h8p7p5-7S12-(12)----|
|-----------------|----------------------|
|-----------------|----------------------|
|-----------------|----------------------|
|-----------------|----------------------|
|
|-----------------|-0--------------------|
|--5--------------|-0--------------------|
|--3--------------|-0--------------------|
|--4--------------|----------------------|
|-----------------|----------------------|
|-----------------|----------------------|


~~~~~~~ ~~~~~~~
|--------------------|--------------------|-------------------|
|---8-12-(12)b15-----|---8-12-(12)b15-----|---8-12-(12)b15----|
|-9------------------|-9------------------|-9-----------------|
|--------------------|--------------------|-------------------|
|--------------------|--------------------|-------------------|
|--------------------|--------------------|-------------------|
|
|--------------------|-0------------------|-2-----------------|
|-3------------------|-0------------------|-------------------|
|-3------------------|--------------------|-3-----------------|
|--------------------|--------------------|-------------------|
|--------------------|--------------------|-------------------|
|--------------------|--------------------|-------------------|


|-14p11---------------------14p11---------------------|
|-------12b15==(12)r(12)----------12b15==(12)r(12)----|
|------------------------12------------------------12-|
|-----------------------------------------------------|
|-----------------------------------------------------|
|-----------------------------------------------------|
|
|--3--------------------------------------------------|
|--3--------------------------------------------------|
|-----------------------------------------------------|
|-----------------------------------------------------|
|-----------------------------------------------------|
|-----------------------------------------------------|


|-14p11---------------------14p11---------------------|-12--------||
|-------12b15==(12)r(12)----------12b15==(12)r(12)----|-----------||
|------------------------12------------------------12-|-----------||
|-----------------------------------------------------|-----------||
|-----------------------------------------------------|-----------||
|-----------------------------------------------------|-----------||
|
|--7--------------------------------------------------|-12--------||
|--4--------------------------------------------------|-----------||
|-----------------------------------------------------|--9--------||
|-----------------------------------------------------|-----------||
|-----------------------------------------------------|-----------||
|-----------------------------------------------------|-----------||


[Verse]


Gtr I
|-----!x-------|-------------|--------------|-------------|
|-----!x-------|----8-----8--|----8-----8-0-|-8--8-----8--|
|-----!x-------|----x-----x--|----x-----x-0-|-x--x-----x--|
|--------------|----9-----9--|----9-----9---|-9--9-----9--|
|--------------|----7-----7--|----7-----7---|-7--7-----7--|
|---------12\--|-0-----0-----|-0-----0------|-------0-----|


|--------------|-----------------|------------------|-------------|
|----8-----8-0-|-10--10--10--10--|-10--10--10--10-0-|-8--8--8--8--|
|----x-----x-0-|--8---8---8---8--|--8---8---8---8---|-8--8--8--8--|
|----9-----9---|--x---x---x---x--|--x---x---x---x---|-x--x--x--x--|
|----7-----7---|--9---9---9---9--|--9---9---9---9---|-6--6--6--6--|
|-0-----0------|--7---7---7---7--|--7---7---7---7---|-------------|


|---------------|----------------|------------------|----------------|
|-8--8--8-0-8-0-|-8--10--10-8----|-10--10-8----<7>--|----10--10-8----|
|-8--8--8---8---|-x---x---x---9--|--x---x---9--<7>--|-----x---x---9--|
|-x--x--x---x---|-9---9---9------|--9---9-----------|-----9---9------|
|-6--6--6---6---|-7---7---7------|--7---7-----------|-----7---7------|
|---------------|----------------|------------------|-0--------------|


|-----------------|-------------|---------------|-------------|
|-10--10-8----8-x-|-------------|---------0---0-|-8--8--8--8--|
|--x---x---9--x-x-|-8--8--8--8--|-8--8--8---8---|-8--8--8--8--|
|--9---9------9-x-|-x--x--x--x--|-x--x--x---x---|-x--x--x--x--|
|--7---7------7---|-9--9--9--9--|-9--9--9---9---|-6--6--6--6--|
|-----------------|-7--7--7--7--|-7--7--7---7---|-------------|


|-------------|-12----12----|-12----12----|-12--------*|
|-8--8--8--8--|--8-----8----|--8-----8----|--8--------*|
|-8--8--8--8--|--x-----x----|--x-----x----|--x--------*|
|-x--x--x--x--|--9-----9----|--9-----9----|--9--------*|
|-6--6--6--6--|--7-----7----|--7-----7----|--7--------*|
|-------------|-------------|-------------|-----------*|


Tablature Legend
************************************

| x Dead note
| (n) Ghost note
| h Hammer-on
| p Pull-off
| > Accented note
| b Bend
| pb Pre-bend
| \ Slide down
| s Slide up

************************************

Misc Legend
-----------
| - bar
|| - double bar
||o - repeat start
o|| - repeat end
*| - double bar (ending)
: - bar (freetime)
$ - Segno
& - Coda
Tempo markers - = BPM(8/16=s8/s16), where s8 = swing 8ths, s16 = swing 16ths
Tunning: Standard (E A D G B e)
Tuning: C F Bb Eb G C
sounds good with a rhythm distortion.
bass 6, mids 5, treble 7

Intro:
|----------------|
|-8---8---8---8--|
|-x---x---x---x--|
|-9---9---9---9--|
|-7---7---7---7--|
|----------------|


|-------------------------------------------------------|
|-----------10--10----8---------10--10----8-------------|
|-----------x----x----x----9----x----x----x----9--------|
|-----------9----9----9----9----9----9----9----9--------| x2
|-----------7----7----7----7----7----7----7----7--------|
|-15/--0-------------------0-------------------0--------|

on the third time, play this:
|--------------------------------------------------|
|-----------10--10----8---------10---10^11r10------|
|-----------x----x----x----9----x----x-------------|
|-----------9----9----9----9----9----9~------------|
|-----------7----7----7----7----7----7~------------|
|-15/---0------------------0-----------------------|

then play this the fourth time:
(* = natural harmonics)
|----------------------------------------------|
|-----------10--10----8---------------7*-------|
|-----------x----x----x----9----------7*-------|
|-----------9----9----9----9----------7*-------|
|-----------7----7----7----7-------------------|
|-15/---0------------------0----0--------------|

Verse 1:

|------------------------------------------------|
|------8---------8--------8-------8--10--8--8----|
|------x---------x--------x-------x---x--x--x----| x3
|-9----9----9----9---9----9---9---9---9--9--9----|
|-7----7----7----7---7----7---7---7---7--7--7----|
|-0---------0--------0--------0------------------|

on the fourth time, play this:

|-------------------------------------------------|
|------8--------8--------8-----8-------8----------|
|------x--------x--------x-----x---x---x---x------|
|-9----9----9---9---9----9-----9---9---9---9------|
|-7----7----7---7---7----7-----7---7---7---7------|
|-0---------0-------0-----------------------------|

then go on to this:
|------------------------------------------|
|------------------------------------------|
|------8---------8---------8----8------8---|
|------x---------x---------x----x------x---|
|-9----9----9----9----9----9----9--7--9--7-|
|-7----7----7----7----7----7----7--7--7--7-|


|------------------------------------------|
|-8----8----8----8----8----8----8--8--8--8-|
|-8----8----8----8----8----8----8--8--8--8-|
|-8----8----8----8----8----8----8--8--8--8-|
|-6----6----6----6----6----6----6--6--6--6-|
|------------------------------------------|


|------------------------------------------|
|-----10--10----8---------10--10----8------|
|-----x----x----x----9----x----x----x----9-|
|-----9----9----9----9----9----9----9----9-|
|-----7----7----7----7----7----7----7----7-|
|--0-----------------0-------------------0-|


|----------------------------------0~------|
|-----------10--10----8------------4^5-----|
|-----------x----x----x---9----------------|
|-----------9----9----9---9----------------|
|-----------7----7----7---7----------------|
|-15/----0----------------0----0-----------|

2nd part of verse 1:

|-------------------------------------------------|
|------8--------8--------8--------8--10--8--8-----|
|------x--------x--------x--------x---x--x--x-----| x3
|-9----9----9---9---9----9---9----9---9--9--9-----|
|-7----7----7---7---7----7---7----7---7--7--7-----|
|-0---------0-------0--------0--------------------|


|-------------------------------------------------|
|------8--------8--------8-----8-------8----------|
|------x--------x--------x-----x---x---x---x------|
|-9----9----9---9---9----9-----9---9---9---9------|
|-7----7----7---7---7----7-----7---7---7---7------|
|-0---------0-------0-----------------------------|


|------------------------------------------|
|------10--------10--------10---10----10---|
|-8----8----8----8----8----8----8--8--8--8-|
|-x----x----x----x----x----x----x--x--x--x-|
|-9----9----9----9----9----9----9--9--9--9-|
|-7----7----7----7----7----7----7--7--7--7-|


|------------------------------------------|
|-8----8----8----8----8----8----8--8--8--8-|
|-8----8----8----8----8----8----8--8--8--8-|
|-8----8----8----8----8----8----8--8--8--8-|
|-6----6----6----6----6----6----6--6--6--6-|
|------------------------------------------|

Verse 1 tag:

|----------------------------------------------------|
|------10--10----8-------10--10--8-------------------|
|------x----x----x---9---x---x---x-------------------|
|------9----9----9---9---9---9---9-------------------|
|------7----7----7---7---7---7---7----------5h7------|
|---0----------------0-------------------5h7---5h7p0-|


|---------------------------------------------|
|----10--10----8---------10--10----8----------|
|----x----x----x----9----x----x----x----9---9-|
|----9----9----9----9----9----9----9----9---9-|
|----7----7----7----7----7----7----7----7---7-|
|-0-----------------0-------------------0---0-|


|------------------------------------------|
|------10--------10--------10---10----10---|
|-8----8----8----8----8----8----8--8--8--8-|
|-x----x----x----x----x----x----x--x--x--x-|
|-9----9----9----9----9----9----9--9--9--9-|
|-7----7----7----7----7----7----7--7--7--7-|


|------------------------------------------|
|-8----8----8----8----8----8----8--8--8--8-|
|-8----8----8----8----8----8----8--8--8--8-|
|-8----8----8----8----8----8----8--8--8--8-|
|-6----6----6----6----6----6----6--6--6--6-|
|------------------------------------------|


|-----------------------------------------------12-------|
|-----10--10----8-----------10--10---8----10^12~---------|
|------x----x---x---9-------x----x---x---------------9~--|
|------9----9---9---9-------9----9---9-------------------|
|------7----7---7---7-------7----7---7-------------------|
|--0----------------0------------------------------------|


|-------------------------------------------|
|------10--10----8---------10--10----8------|
|------x----x----x----9----x----x----x----9-|
|------9----9----9----9----9----9----9----9-|
|------7----7----7----7----7----7----7----7-|
|--0------------------0-------------------0-|


Chorus:

|--------------------------------------------------------------------|
|--------------------------------------------------------------------|
|-9--11---12--11---14--12--16--14------------------------------------|
|-x---x----x---x----x---x---x---x-9--7--9--7--9--7--9--7--9--7--9--7-|
|-7---9---10---9---12--10--14--12-9--7--9--7--9--7--9--7--9--7--9--7-|
|---------------------------------7--7--7--7--7--7--7--7--7--7--7--7-|


|--------------------------------------------------------------------|
|--------------------------------------------------------------------|
|-9--11---12--11---14--12--16--14------------------------------------|
|-x---x----x---x----x---x---x---x-9--7--9--7--9--7--9--7--9--7--9--7-|
|-7---9---10---9---12--10--14--12-9--7--9--7--9--7--9--7--9--7--9--7-|
|---------------------------------7--7--7--7--7--7--7--7--7--7--7--7-|


|--------------------------------------------------------------------|
|--------------------------------------------------------------------|
|-16--14--12--11--9--11--12--11--------------------------------------|
|--x---x---x---x--x---x---x---x--9--7--9--7--9--7--9--7--9--7--9--7--|
|-14--12--10---9--7---9--10---9--9--7--9--7--9--7--9--7--9--7--9--7--|
|--------------------------------7--7--7--7--7--7--7--7--7--7--7--7--|


|--------------------------------------------------------------------|
|--------------------------------------------------------------------|
|-9--11---12--11---14--12--16--14------------------------------------|
|-x---x----x---x----x---x---x---x-9--7--9--7--9--7--9--7--9--7--9--7-|
|-7---9---10---9---12--10--14--12-9--7--9--7--9--7--9--7--9--7--9--7-|
|---------------------------------7--7--7--7--7--7--7--7--7--7--7--7-|

Pre-verse/post-chorus

|------------------------------------------|
|-----10--10----8---------10--10----8------|
|-----x----x----x----9----x----x----x----9-|
|-----9----9----9----9----9----9----9----9-|
|-----7----7----7----7----7----7----7----7-|
|--0-----------------0-------------------0-|


|----------------------------------0~------|
|-----------10--10----8------------4^5-----|
|-----------x----x----x---9----------------|
|-----------9----9----9---9----------------|
|-----------7----7----7---7----------------|
|-15/---0-----------------0----0-----------|

Verse 2:


|------------------------------------------------|
|------8--------8--------8--------8--10--8--8----|
|------x--------x--------x--------x---x--x--x----| x3
|-9----9----9---9---9----9---9----9---9--9--9----|
|-7----7----7---7---7----7---7----7---7--7--7----|
|-0---------0-------0--------0-------------------|


|-------------------------------------------------|
|------8--------8--------8-----8-------8----------|
|------x--------x--------x-----x---x---x---x------|
|-9----9----9---9---9----9-----9---9---9---9------|
|-7----7----7---7---7----7-----7---7---7---7------|
|-0---------0-------0-----------------------------|


|------------------------------------------|
|------10--------10--------10---10----10---|
|-8----8----8----8----8----8----8--8--8--8-|
|-x----x----x----x----x----x----x--x--x--x-|
|-9----9----9----9----9----9----9--9--9--9-|
|-7----7----7----7----7----7----7--7--7--7-|

|------------------------------------------|
|-8----8----8----8----8----8----8--8--8--8-|
|-8----8----8----8----8----8----8--8--8--8-|
|-8----8----8----8----8----8----8--8--8--8-|
|-6----6----6----6----6----6----6--6--6--6-|
|------------------------------------------|


|------------------------------------------------------|
|------10--10----8-------10--10--8---------------------|
|------x----x----x---9---x---x---x---------------------|
|------9----9----9---9---9---9---9---------------------|
|------7----7----7---7---7---7---7-----------5---------|
|---0----------------0-----------------5h6h7--7p5------|


|-----------------------------------------|
|-------10--10----8---------------7*------|
|-------x----x----x----9----------7*------|
|-------9----9----9----9----------7*------|
|-------7----7----7----7----7-------------|
|----0-----------------0----0-------------|


|-------------------------------------------------|
|------8--------8--------8--------8--10--8--8-----|
|------x--------x--------x--------x---x--x--x-----| x3
|-9----9----9---9---9----9---9----9---9--9--9-----|
|-7----7----7---7---7----7---7----7---7--7--7-----|
|-0---------0-------0--------0--------------------|


|-------------------------------------------------|
|------8--------8--------8-----8-------8----------|
|------x--------x--------x-----x---x---x---x------|
|-9----9----9---9---9----9-----9---9---9---9------|
|-7----7----7---7---7----7-----7---7---7---7------|
|-0---------0-------0-----------------------------|


|------------------------------------------|
|------10--------10--------10---10----10---|
|-8----8----8----8----8----8----8--8--8--8-|
|-x----x----x----x----x----x----x--x--x--x-|
|-9----9----9----9----9----9----9--9--9--9-|
|-7----7----7----7----7----7----7--7--7--7-|


|------------------------------------------|
|-8----8----8----8----8----8----8--8--8--8-|
|-8----8----8----8----8----8----8--8--8--8-|
|-8----8----8----8----8----8----8--8--8--8-|
|-6----6----6----6----6----6----6--6--6--6-|
|------------------------------------------|

|------------------------------------------|
|-----10--10----8---------10--10----8------|
|-----x----x----x----9----x----x----x----9-|
|-----9----9----9----9----9----9----9----9-|
|-----7----7----7----7----7----7----7----7-|
|--0-----------------0-------------------0-|


|---------------------------------------------------|
|------------10--10----8---------10--10----8--------|
|------------x----x----x----9----x----x----x----9---|
|------------9----9----9----9----9----9----9----9---|
|------------7----7----7----7----7----7----7----7---|
|-15/----0------------------0-------------------0---|


|------------------------------------------|
|------10--------10--------10---10----10---|
|-8----8----8----8----8----8----8--8--8--8-|
|-x----x----x----x----x----x----x--x--x--x-|
|-9----9----9----9----9----9----9--9--9--9-|
|-7----7----7----7----7----7----7--7--7--7-|


|------------------------------------------|
|-8----8----8----8----8----8----8--8--8--8-|
|-8----8----8----8----8----8----8--8--8--8-|
|-8----8----8----8----8----8----8--8--8--8-|
|-6----6----6----6----6----6----6--6--6--6-|
|------------------------------------------|


|-----------------------------------------------12-----|
|-----10--10----8-----------10--10---8----10^12~-------|
|------x----x---x---9-------x----x---x-------------9~--|
|------9----9---9---9-------9----9---9-----------------|
|------7----7---7---7-------7----7---7-----------------|
|--0----------------0----------------------------------|


|-------------------------------------------|
|------10--10----8---------10--10----8------|
|------x----x----x----9----x----x----x----9-|
|------9----9----9----9----9----9----9----9-|
|------7----7----7----7----7----7----7----7-|
|--0------------------0-------------------0-|


Chorus:

|--------------------------------------------------------------------|
|--------------------------------------------------------------------|
|-9--11---12--11---14--12--16--14------------------------------------|
|-x---x----x---x----x---x---x---x-9--7--9--7--9--7--9--7--9--7--9--7-|
|-7---9---10---9---12--10--14--12-9--7--9--7--9--7--9--7--9--7--9--7-|
|---------------------------------7--7--7--7--7--7--7--7--7--7--7--7-|


|--------------------------------------------------------------------|
|--------------------------------------------------------------------|
|-9--11---12--11---14--12--16--14------------------------------------|
|-x---x----x---x----x---x---x---x-9--7--9--7--9--7--9--7--9--7--9--7-|
|-7---9---10---9---12--10--14--12-9--7--9--7--9--7--9--7--9--7--9--7-|
|---------------------------------7--7--7--7--7--7--7--7--7--7--7--7-|


|--------------------------------------------------------------------|
|--------------------------------------------------------------------|
|-16--14--12--11--9--11--12--11--------------------------------------|
|--x---x---x---x--x---x---x---x--9--7--9--7--9--7--9--7--9--7--9--7--|
|-14--12--10---9--7---9--10---9--9--7--9--7--9--7--9--7--9--7--9--7--|
|--------------------------------7--7--7--7--7--7--7--7--7--7--7--7--|


|--------------------------------------------------------------------|
|--------------------------------------------------------------------|
|-9--11---12--11---14--12--16--14------------------------------------|
|-x---x----x---x----x---x---x---x-9--7--9--7--9--7--9--7--9--7--9--7-|
|-7---9---10---9---12--10--14--12-9--7--9--7--9--7--9--7--9--7--9--7-|
|---------------------------------7--7--7--7--7--7--7--7--7--7--7--7-|


Bridge:

|-----------------------------------------------------------|
|-----------------------------------------------------------|
|-----------------------------------------------------------|
|-14-x-14-x-14-x-14-x-14-x-14-x-14-x-14-x-14-x-14-x-14-x-14-|
|-14-x-14-x-14-x-14-x-14-x-14-x-14-x-14-x-14-x-14-x-14-x-14-|
|-12-x-12-x-12-x-12-x-12-x-12-x-12-x-12-x-12-x-12-x-12-x-12-|


|--------------------------|
|--------------------------|
|----------8---------------|
|-9---10---8---9---7---9---|
|-9---10---6---9---7---9---|
|-7----8-------7---5---7---|


|-----------------------------------------------------------|
|-----------------------------------------------------------|
|-----------------------------------------------------------|
|-14-x-14-x-14-x-14-x-14-x-14-x-14-x-14-x-14-x-14-x-14-x-14-|
|-14-x-14-x-14-x-14-x-14-x-14-x-14-x-14-x-14-x-14-x-14-x-14-|
|-12-x-12-x-12-x-12-x-12-x-12-x-12-x-12-x-12-x-12-x-12-x-12-|


|--------------------------|
|--------------------------|
|----------8---------------|
|-9---10---8---9---7---9---| x4
|-9---10---6---9---7---9---|
|-7----8-------7---5---7---|

end bridge on this:
|-----|
|-----|
|--9--|
|--9--|
|--7--|
|-----|


Solo:

|-----0-----0------0-------0-|-0----0----0----0----0-----------|
|-5/7---7/8---8/10---10/12---|---17---15---19---15---17--8/12~-|
|----------------------------|---------------------------------|
|----------------------------|---------------------------------|
|----------------------------|---------------------------------|
|----------------------------|---------------------------------|

|-----------------------------------------------|
|-12p10p8h10--10p8p7h8--8p7p5h7--754--12~-------|
|-----------------------------------------------|
|-----------------------------------------------|
|-----------------------------------------------|
|-----------------------------------------------|

|--------------------------------------|
|-------12^15------12^15~--------12^15-|
|-9/12--------9/12---------9/12--------|
|--------------------------------------|
|--------------------------------------|
|--------------------------------------|


|-t14p10p7-------------t14p10p7-------------t14p10p7-----------|
|-----------t14p10p7-------------t14p10p7-------------t14p10p7-|
|--------------------------------------------------------------|
|--------------------------------------------------------------|
|--------------------------------------------------------------|
|--------------------------------------------------------------|


|-t14p10p7------------10^12--|
|----------t14p10p7----------|
|----------------------------|
|----------------------------|
|----------------------------|
|----------------------------|


Then there's a bass line. At the end of the bass line, there's a harmonic type sound. To
this sound, pluck the top 3 strings above the nut of your guitar.

Verse 3:

|------------------------------------------------|
|------8--------8--------8--------8--10--8--8----|
|------x--------x--------x--------x---x--x--x----|
|-9----9----9---9---9----9---9----9---9--9--9----|
|-7----7----7---7---7----7---7----7---7--7--7----|
|-0---------0-------0--------0-------------------|


|------------------------------------------------|
|------8--------8--------8-----8-------8---------|
|------x--------x--------x-----x---x---x---x-----|
|-9----9----9---9---9----9-----9---9---9---9-----|
|-7----7----7---7---7----7-----7---7---7---7-----|
|-0---------0-------0----------------------------|


|------------------------------------------|
|------10--------10--------10---10----10---|
|-8----8----8----8----8----8----8--8--8--8-|
|-x----x----x----x----x----x----x--x--x--x-|
|-9----9----9----9----9----9----9--9--9--9-|
|-7----7----7----7----7----7----7--7--7--7-|


|------------------------------------------|
|-8----8----8----8----8----8----8--8--8--8-|
|-8----8----8----8----8----8----8--8--8--8-|
|-8----8----8----8----8----8----8--8--8--8-|
|-6----6----6----6----6----6----6--6--6--6-|
|------------------------------------------|


|-------------------------------------------------|
|-----10--10----8---------10--10----8----------|
|-----x----x----x----9----x----x----x----9-----|
|-----9----9----9----9----9----9----9----9-----|
|-----7----7----7----7----7----7----7----7--------|
|--0-----------------0-------------------0--------|


|------------------------------------------|
|-----10---10---8---------10---10---8------|
|-----x----x----x----9----x----x----x----9-|
|-----9----9----9----9----9----9----9----9-|
|-----7----7----7----7----7----7----7----7-|
|--0-----------------0-------------------0-|


|------------------------------------------|
|------10--------10--------10---10----10---|
|-8----8----8----8----8----8----8--8--8--8-|
|-x----x----x----x----x----x----x--x--x--x-|
|-9----9----9----9----9----9----9--9--9--9-|
|-7----7----7----7----7----7----7--7--7--7-|


|------------------------------------------|
|-8----8----8----8----8----8----8--8--8--8-|
|-8----8----8----8----8----8----8--8--8--8-|
|-8----8----8----8----8----8----8--8--8--8-|
|-6----6----6----6----6----6----6--6--6--6-|
|------------------------------------------|

Outro:
|-------------------|
|-8---8---8---8---8-|
|-x---x---x---x---x-|
|-9---9---9---9---9-|
|-7---7---7---7---7-|
|-------------------|
Tunning: Standard (E A D G B e)
I've been looking around, and I can't seem to find a tab for this song that's easy on
fingers, so I decided to make my own...
It seems pretty close to perfect, I'm not popsitive it is %100 percent accurate, though.
is my first tab, as well, so bear with me...

Q Q Q Q Q Q Q Q
C ||--12---------12---------|--12---------12-----------|
G ||--12---------12---------|--12---------12-----------|
D#||--12---------12---------|--12---------12-----------|
A#||---9----------9---------|---9----------9-----------|
F ||------------------------|--------------------------|
C ||------------------------|-------------------10\----|


E E E E E. S E E E E E. S E E Q
-----------------------------|------------------------------|
--------10-----10p---8-------|--10-----10p---8--------------|
---------0------0------9-----|---9------9------9------------|
---------0------9------9-----|---9------9------9------------|
-----------------------------|------------------------------|
--0--------------------------|-----------------------10\----|


E E E E E. S E E E E E. S E E Q
-----------------------------|------------------------------|
--------10-----10p---8-------|--10-----10p---8--------------|
---------0------0------9-----|---9------9------9------------|
---------0------9------9-----|---9------9------9------------|
-----------------------------|------------------------------|
--0--------------------------|-----------------------10\----|


E E E E E. S E E E E E. S E E Q
-----------------------------|-------------------------------|
--------10-----10p---8-------|--10-----10br---L-L------------|
---------0------0------9-----|---9------9--------------------|
---------0------9------9-----|---9------9--------------------|
-----------------------------|-------------------------------|
--0--------------------------|------------------------10\----|


NH
E E E E E. S E E E E H.
-----------------------------|--7--------------------|
--------10-----10p---8-------|--7-----7------------|
---------9------9------9-----|--------7------------|
---------9------9------9-----|-----------------------|
-----------------------------|-----------------------|
--0--------------------------|-----------------------|


|--3--|
E E E E E E E E E E E E E E Q E
--------------------------|-----------------------------|
--------8-----------8-----|--------8-----------8p----7--|
--------9-----------9-----|--------9-----------9-----7--|
--------9-----------9-----|--------9-----------9-----7--|
--------------------------|-----------------------------|
--0-----------0-----------|--0-----------0--------------|


|--3--|
E E E E E E E E E E E E E E Q E
--------------------------|-----------------------------|
--8-----8-----------8-----|--------8-----------8p----7--|
--9-----9-----------9-----|--------9-----------9-----7--|
--9-----9-----------9-----|--------9-----------9-----7--|
--------------------------|-----------------------------|
--------------0-----------|--0-----------0--------------|


|--3--|
E E E E E E E E E E E E E E Q E
--------------------------|-----------------------------|
--8-----8-----------8-----|--------8-----------8p----7--|
--9-----9-----------9-----|--------9-----------9-----7--|
--9-----9-----------9-----|--------9-----------9-----7--|
--------------------------|--------------------7--------|
--------------0-----------|--0-----------0--------------|


|--3--|
E E E E E E E E E E E E E E Q E
--------------------------|-----------------------------|
--8-----8-----------8-----|--------8-----------8p----7--|
--9-----9-----------9-----|--------9-----------9-----7--|
--9-----9-----------9-----|--------9-----------9-----7--|
--------------------------|-----------------------------|
--------------0-----------|--0-----------0--------------|


E E E E E E E E E E E E E. S E. S
--------------------------|--------------------------|
--7-----7-----7-----7-----|--7-----7-----7---0-7---0-|
--8-----8-----8-----8-----|--8-----8-----8---0-8---0-|
--9-----9-----9-----9-----|--9-----9-----9---0-9---0-|
--9-----9-----9-----9-----|--9-----9-----9---0-9---0-|
--7-----7-----7-----7-----|--7-----7-----7-----7-----|


|--3-| |--3-|
E E E E E E E E E E E E Q E Q E
------------------------------|----------------------------------|
--11-----11-----11-----11-----|--11-----11-----11----0--------0--|
--12-----12-----12-----12-----|--12-----12-----12----0--12----0--|
--13-----13-----13-----13-----|--13-----13-----13----0--13----0--|
--13-----13-----13-----13-----|--13-----13-----13----0--13----0--|
--11-----11-----11-----11-----|--11-----11-----11-------11-------|


E E E E E. S E E E E E. S E E Q
-----------------------------|------------------------------|
--------10-----10p---8-------|--10-----10p---8--------------|
---------9------9------9-----|---9------9------9------------|
---------9------9------9-----|---9------9------9------------|
-----------------------------|------------------------------|
--0--------------------------|-----------------------10\----|


E E E E E. S E E E E H.
-----------------------------|---------0~------------|
--------10-----10p---8-------|--10-------------------|
---------9------9------9-----|---9-----9b------------|
---------9------9------9-----|---9-------------------|
-----------------------------|-----------------------|
--0--------------------------|-----------------------|


|--3--|
E E E E E E E E E E E E E E Q E
--------------------------|-----------------------------|
--------8-----------8-----|--------8-----------8p----7--|
--------9-----------9-----|--------9-----------9-----7--|
--------9-----------9-----|--------9-----------9-----7--|
--------------------------|-----------------------------|
--0-----------0-----------|--0-----------0--------------|


|--3--|
E E E E E E E E E E E E E E Q E
--------------------------|-----------------------------|
--8-----8-----------8-----|--------8-----------8p----7--|
--9-----9-----------9-----|--------9-----------9-----7--|
--9-----9-----------9-----|--------9-----------9-----7--|
--------------------------|-----------------------------|
--------------0-----------|--0-----------0--------------|


|--3--|
E E E E E E E E E E E E E E Q E
--------------------------|-----------------------------|
--8-----8-----------8-----|--------8-----------8p----7--|
--9-----9-----------9-----|--------9-----------9-----7--|
--9-----9-----------9-----|--------9-----------9-----7--|
--------------------------|-----------------------------|
--------------0-----------|--0-----------0--------------|


|--3--| |--3--|
E E E E E E E E E E E E Q E Q E
--------------------------|--------------------------------|
--8-----8-----------8-----|--------8-----8p----7--8p----7--|
--9-----9-----------9-----|--------9-----9-----7--9-----7--|
--9-----9-----------9-----|--------9-----9-----7--9-----7--|
--------------------------|--------------------------------|
--------------0-----------|--0-----------------------------|


|--3-|
E E E E E E E E E E E E E E Q E
----------------------------|------------------------------|
--------10-----------10-----|--------10-----------10----0--|
--8------8-----8------8-----|--8------8-----8------8----0--|
--9------9-----9------9-----|--9------9-----9------9----0--|
--9------9-----9------9-----|--9------9-----9------9----0--|
--7------7-----7------7-----|--7------7-----7------7-------|


|--3-| |--3-|
E E E E E E E E E E E E Q E Q E
------------------------------|----------------------------------|
--11-----11-----11-----11-----|--11-----11-----11----0--11----0--|
--12-----12-----12-----12-----|--12-----12-----12----0--12----0--|
--13-----13-----13-----13-----|--13-----13-----13----0--13----0--|
--13-----13-----13-----13-----|--13-----13-----13----0--13----0--|
--11-----11-----11-----11-----|--11-----11-----11-------11-------|


|---3--|
E E E E E. S E E E E E E E E E E E
-----------------------------|-----------------------------------|
--------10-----10p---8-------|--10-----10------------------------|
---------9------9------9-----|---9------9------------------------|
---------9------9------9-----|---9------9------------------------|
-----------------------------|--------------------5h--7p--5------|
--0--------------------------|-------------5s--7-------------7p--|


E E E E E. S E E E E E. S E E Q
-----------------------------|------------------------------|
--------10-----10p---8-------|--10-----10p---8--------------|
---------9------9------9-----|---9------9------9------------|
---------9------9------9-----|---9------9------9------------|
-----------------------------|------------------------------|
--0--------------------------|-----------------------10\----|


|--3-| |--3-|
E E E E E E E E E E E E Q E Q E
----------------------------|---------------------------------|
--------10-----------10-----|--------10-----10----0--10----0--|
--8------8-----8------8-----|--8------8------8----0---8----0--|
--9------9-----9------9-----|--9------9------9----0---9----0--|
--9------9-----9------9-----|--9------9------9----0---9----0--|
--7------7-----7------7-----|--7------7------7--------7-------|


|--3-| |--3-|
E E E E E E E E E E E E Q E Q E
------------------------------|----------------------------------|
--11-----11-----11-----11-----|--11-----11-----11----0--11----0--|
--12-----12-----12-----12-----|--12-----12-----12----0--12----0--|
--13-----13-----13-----13-----|--13-----13-----13----0--13----0--|
--13-----13-----13-----13-----|--13-----13-----13----0--13----0--|
--11-----11-----11-----11-----|--11-----11-----11-------11-------|


|---3--|
E E E E E. S E E E E E. S Q E Q
-----------------------------|------------------------12--------|
--------10-----10p---8-------|--10-----10p---8------------------|
---------9------9------9-----|---9------9------14b--------9~----|
---------9------9------9-----|---9------9-----------------------|
-----------------------------|----------------------------------|
--0--------------------------|----------------------------------|


E E E E E. S E E E E E. S E E E. S
-----------------------------|-----------------------------|
--------10-----10p---8-------|--10-----10p---8-------------|
---------9------9------9-----|---9------9------9-----------|
---------9------9------9-----|---9------9------9-----------|
-----------------------------|-----------------------------|
--0--------------------------|-----------------------------|


E E E E E E E E E E E E E E E E
--------------------------------|----------------------------------|
--------------------------------|----------------------------------|
--9--9--11--11--12--12--11--11--|--14--14--12--12--16--16--14--14--|
--------------------------------|----------------------------------|
--7--7---9---9--10--10---9---9--|--12--12--10--10--14--14--12--12--|
--------------------------------|----------------------------------|


|--3-| |--3-| |--3-| |--3-| |--3-| |--3-| |--3-| |--3-|
Q E Q E Q E Q E Q E Q E Q E Q E
----------------------------------|----------------------------------|
----------------------------------|----------------------------------|
----------------------------------|----------------------------------|
--9----0--9----0--9----0--9----0--|--9----0--9----0--9----0--9----0--|
--9----0--9----0--9----0--9----0--|--9----0--9----0--9----0--9----0--|
--7----0--7----0--7----0--7----0--|--7----0--7----0--7----0--7----0--|


E E E E E E E E E E E E E E E E
--------------------------------|----------------------------------|
--------------------------------|----------------------------------|
--9--9--11--11--12--12--11--11--|--14--14--12--12--10--16--14--14--|
--------------------------------|----------------------------------|
--7--7---9---9--10--10---9---9--|--12--12--10--10--14--14--12--12--|
--------------------------------|----------------------------------|


|--3-| |--3-| |--3-| |--3-| |--3-| |--3-| |--3-| |--3-|
Q E Q E Q E Q E Q E Q E Q E Q E
----------------------------------|----------------------------------|
----------------------------------|----------------------------------|
----------------------------------|----------------------------------|
--9----0--9----0--9----0--9----0--|--9----0--9----0--9----0--9----0--|
--9----0--9----0--9----0--9----0--|--9----0--9----0--9----0--9----0--|
--7----0--7----0--7----0--7----0--|--7----0--7----0--7----0--7----0--|


E E E E E E E E E E E E E E E E
------------------------------|--------------------------------|
------------------------------|--------------------------------|
--12--12--11--11--9--9--7--7--|--9--9--11--11--12--12--11--11--|
------------------------------|--------------------------------|
--10--10---9---9--7--7--5--5--|--7--7---9---9--10--10---9---9--|
------------------------------|--------------------------------|


|--3-| |--3-| |--3-| |--3-| |--3-| |--3-| |--3-| |--3-|
Q E Q E Q E Q E Q E Q E Q E Q E
----------------------------------|----------------------------------|
----------------------------------|----------------------------------|
----------------------------------|----------------------------------|
--9----0--9----0--9----0--9----0--|--9----0--9----0--9----0--9----0--|
--9----0--9----0--9----0--9----0--|--9----0--9----0--9----0--9----0--|
--7----0--7----0--7----0--7----0--|--7----0--7----0--7----0--7----0--|


E E E E E E E E E E E E E E E E
--------------------------------|----------------------------------|
--------------------------------|----------------------------------|
--9--9--11--11--12--12--11--11--|--14--14--12--12--16--16--14--14--|
--------------------------------|----------------------------------|
--7--7---9---9--10--10---9---9--|--12--12--10--10--14--14--12--12--|
--------------------------------|----------------------------------|


|--3-| |--3-| |--3-| |--3-| |--3-| |--3-| |--3-|
Q E Q E Q E Q E Q E Q E Q E Q
----------------------------------|---------------------------------|
----------------------------------|---------------------------------|
----------------------------------|---------------------------------|
--9----0--9----0--9----0--9----0--|--9----0--9----0--9----0---------|
--9----0--9----0--9----0--9----0--|--9----0--9----0--9----0---------|
--7----0--7----0--7----0--7----0--|--7----0--7----0--7----0--15\----|


E E E E E. S E E E E E. S E E Q
-----------------------------|------------------------------|
--------10-----10p---8-------|--10-----10p---8--------------|
---------9------9------9-----|---9------9------9------------|
---------9------9------9-----|---9------9------9------------|
-----------------------------|------------------------------|
--0--------------------------|-----------------------10\----|


E E E E E. S E E E E H.
-----------------------------|---------0~------------|
--------10-----10p---8-------|--10-------------------|
---------9------9------9-----|---9-----9b------------|
---------9------9------9-----|---9-------------------|
-----------------------------|-----------------------|
--0--------------------------|-----------------------|


|--3--|
E E E E E E E E E E E E E E Q E
--------------------------|-----------------------------|
--------8-----------8-----|--------8-----------8p----7--|
--------9-----------9-----|--------9-----------9-----7--|
--------9-----------9-----|--------9-----------9-----7--|
--------------------------|-----------------------------|
--0-----------0-----------|--0-----------0--------------|


|--3--|
E E E E E E E E E E E E E E Q E
--------------------------|-----------------------------|
--8-----8-----------8-----|--------8-----------8p----7--|
--9-----9-----------9-----|--------9-----------9-----7--|
--9-----9-----------9-----|--------9-----------9-----7--|
--------------------------|-----------------------------|
--------------0-----------|--0-----------0--------------|


|--3--|
E E E E E E E E E E E E E E Q E
--------------------------|-----------------------------|
--8-----8-----------8-----|--------8-----------8p----7--|
--9-----9-----------9-----|--------9-----------9-----7--|
--9-----9-----------9-----|--------9-----------9-----7--|
--------------------------|-----------------------------|
--------------0-----------|--0-----------0--------------|


|--3--|
E E E E E E E E E E E E E E Q E
--------------------------|-----------------------------|
--8-----8-----------8-----|--------8-----------8p----7--|
--9-----9-----------9-----|--------9-----------9-----7--|
--9-----9-----------9-----|--------9-----------9-----7--|
--------------------------|-----------------------------|
--------------0-----------|--0-----------0--------------|


|--3--|
E E E E E E E E E E E E E E Q E
----------------------------|-------------------------------|
--------10-----------10-----|--------10-----------10p----0--|
--8------8-----8------8-----|--8------8-----8------8-----0--|
--9------9-----9------9-----|--9------9-----9------9-----0--|
--9------9-----9------9-----|--9------9-----9------9-----0--|
--7------7-----7------7-----|--7------7-----7------7--------|


|--3-| |--3-|
E E E E E E E E E E E E Q E Q E
------------------------------|----------------------------------|
--11-----11-----11-----11-----|--11-----11-----11----0--11----0--|
--12-----12-----12-----12-----|--12-----12-----12----0--12----0--|
--13-----13-----13-----13-----|--13-----13-----13----0--13----0--|
--13-----13-----13-----13-----|--13-----13-----13----0--13----0--|
--11-----11-----11-----11-----|--11-----11-----11-------11-------|


|---3--| |---3--|
E E E E E. S E E E E E. S E E E E E E
-----------------------------|---------------------------------------|
--------10-----10p---8-------|--10-----10p---8-----------------------|
---------9------9------9-----|---9------9----------------------------|
---------9------9------9-----|---9------9----------------------------|
-----------------------------|------------------------5h--7p--5------|
--0--------------------------|-----------------5s--7-------------7p--|


NH
E E E E E. S E E E E H.
-----------------------------|--7--------------------|
--------10-----10p---8-------|--7-----7------------|
---------9------9------9-----|--------7------------|
---------9------9------9-----|-----------------------|
-----------------------------|-----------------------|
--0--------------------------|-----------------------|


|--3--|
E E E E E E E E E E E E E E Q E
--------------------------|-----------------------------|
--------8-----------8-----|--------8-----------8p----7--|
--------9-----------9-----|--------9-----------9-----7--|
--------9-----------9-----|--------9-----------9-----7--|
--------------------------|-----------------------------|
--0-----------0-----------|--0-----------0--------------|


|--3--|
E E E E E E E E E E E E E E Q E
--------------------------|-----------------------------|
--8-----8-----------8-----|--------8-----------8p----7--|
--9-----9-----------9-----|--------9-----------9-----7--|
--9-----9-----------9-----|--------9-----------9-----7--|
--------------------------|-----------------------------|
--------------0-----------|--0-----------0--------------|


|--3--|
E E E E E E E E E E E E E E Q E
--------------------------|-----------------------------|
--8-----8-----------8-----|--------8-----------8p----7--|
--9-----9-----------9-----|--------9-----------9-----7--|
--9-----9-----------9-----|--------9-----------9-----7--|
--------------------------|-----------------------------|
--------------0-----------|--0-----------0--------------|


|--3--| |--3--|
E E E E E E E E E E E E Q E Q E
--------------------------|--------------------------------|
--8-----8-----------8-----|--------8-----8p----7--8p----7--|
--9-----9-----------9-----|--------9-----9-----7--9-----7--|
--9-----9-----------9-----|--------9-----9-----7--9-----7--|
--------------------------|--------------------------------|
--------------0-----------|--0-----------------------------|


|--3--|
E E E E E E E E E E E E E E Q E
----------------------------|-------------------------------|
--------10-----------10-----|--------10-----------10p----0--|
--8------8-----8------8-----|--8------8-----8------8-----0--|
--9------9-----9------9-----|--9------9-----9------9-----0--|
--9------9-----9------9-----|--9------9-----9------9-----0--|
--7------7-----7------7-----|--7------7-----7------7--------|


|--3-| |--3-|
E E E E E E E E E E E E Q E Q E
------------------------------|----------------------------------|
--11-----11-----11-----11-----|--11-----11-----11----0--------0--|
--12-----12-----12-----12-----|--12-----12-----12----0--12----0--|
--13-----13-----13-----13-----|--13-----13-----13----0--13----0--|
--13-----13-----13-----13-----|--13-----13-----13----0--13----0--|
--11-----11-----11-----11-----|--11-----11-----11-------11-------|


E E E E E. S E E E E E. S E E Q
-----------------------------|------------------------------|
--------10-----10p---8-------|--10-----10p---8--------------|
---------9------9------9-----|---9------9------9------------|
---------9------9------9-----|---9------9------9------------|
-----------------------------|------------------------------|
--0--------------------------|-----------------------10\----|


E E E E E. S E E E E E. S E E E. S
-----------------------------|-----------------------------|
--------10-----10p---8-------|--10-----10p---8-------8-----|
---------9------9------9-----|---9------9------9-----9-----|
---------9------9------9-----|---9------9------9-----9-----|
-----------------------------|-----------------------------|
--0--------------------------|-----------------------------|


|--3-|
E E E E E E E E E E E E E E Q E
----------------------------|------------------------------|
--------10-----------10-----|--------10-----------10----0--|
--8------8-----8------8-----|--8------8-----8------8----0--|
--9------9-----9------9-----|--9------9-----9------9----0--|
--9------9-----9------9-----|--9------9-----9------9----0--|
--7------7-----7------7-----|--7------7-----7------7-------|


|--3-| |--3-| |--3-| |--3-|
E E E E E E Q E E E Q E Q E Q E
--------------------------------|------------------------------------|
--11-----11-----11-----11----0--|---------------0--------0--------0--|
--12-----12-----12-----12----0--|--12-----12----0--12----0--12----0--|
--13-----13-----13-----13----0--|--13-----13----0--13----0--13----0--|
--13-----13-----13-----13-------|--13-----13-------13-------13-------|
--11-----11-----11-----11-------|--11-----11-------11-------11-------|


E E E E E. S E E E E E. S E. S Q
-----------------------------|-----------------------12-------|
--------10-----10p---8-------|--10-----10p---8----------------|
---------9------9------9-----|---9------9------14b------9~----|
---------9------9------9-----|---9------9---------------------|
-----------------------------|--------------------------------|
--0--------------------------|--------------------------------|


E E E E E. S E E E E E. S E E Q
-----------------------------|------------------------------|
--------10-----10p---8-------|--10-----10p---8--------------|
---------9------9------9-----|---9------9------9------------|
---------9------9------9-----|---9------9------9------------|
-----------------------------|------------------------------|
--0--------------------------|-----------------------10\----|


E E E E E E E E E E E E E E E E
--------------------------------|----------------------------------|
--------------------------------|----------------------------------|
--9--9--11--11--12--12--11--11--|--14--14--12--12--16--16--14--14--|
--------------------------------|----------------------------------|
--7--7---9---9--10--10---9---9--|--12--12--10--10--14--14--12--12--|
--------------------------------|----------------------------------|


|--3-| |--3-| |--3-| |--3-| |--3-| |--3-| |--3-| |--3-|
Q E Q E Q E Q E Q E Q E Q E Q E
----------------------------------|----------------------------------|
----------------------------------|----------------------------------|
----------------------------------|----------------------------------|
--9----0--9----0--9----0--9----0--|--9----0--9----0--9----0--9----0--|
--9----0--9----0--9----0--9----0--|--9----0--9----0--9----0--9----0--|
--7----0--7----0--7----0--7----0--|--7----0--7----0--7----0--7----0--|


E E E E E E E E E E E E E E E E
--------------------------------|----------------------------------|
--------------------------------|----------------------------------|
--9--9--11--11--12--12--11--11--|--14--14--12--12--16--16--14--14--|
--------------------------------|----------------------------------|
--7--7---9---9--10--10---9---9--|--12--12--10--10--14--14--12--12--|
--------------------------------|----------------------------------|


|--3-| |--3-| |--3-| |--3-| |--3-| |--3-| |--3-| |--3-|
Q E Q E Q E Q E Q E Q E Q E Q E
----------------------------------|----------------------------------|
----------------------------------|----------------------------------|
----------------------------------|----------------------------------|
--9----0--9----0--9----0--9----0--|--9----0--9----0--9----0--9----0--|
--9----0--9----0--9----0--9----0--|--9----0--9----0--9----0--9----0--|
--7----0--7----0--7----0--7----0--|--7----0--7----0--7----0--7----0--|


E E E E E E E E E E E E E E E E
------------------------------|--------------------------------|
------------------------------|--------------------------------|
--12--12--11--11--9--9--7--7--|--9--9--11--11--12--12--11--11--|
------------------------------|--------------------------------|
--10--10---9---9--7--7--5--5--|--7--7---9---9--10--10---9---9--|
------------------------------|--------------------------------|


|--3-| |--3-| |--3-| |--3-| |--3-| |--3-| |--3-| |--3-|
Q E Q E Q E Q E Q E Q E Q E Q E
----------------------------------|----------------------------------|
----------------------------------|----------------------------------|
----------------------------------|----------------------------------|
--9----0--9----0--9----0--9----0--|--9----0--9----0--9----0--9----0--|
--9----0--9----0--9----0--9----0--|--9----0--9----0--9----0--9----0--|
--7----0--7----0--7----0--7----0--|--7----0--7----0--7----0--7----0--|


E E E E E E E E E E E E E E E E
--------------------------------|----------------------------------|
--------------------------------|----------------------------------|
--9--9--11--11--12--12--11--11--|--14--14--12--12--16--16--14--14--|
--------------------------------|----------------------------------|
--7--7---9---9--10--10---9---9--|--12--12--10--10--14--14--12--12--|
--------------------------------|----------------------------------|


|--3-| |--3-| |--3-| |--3-| |--3-| |--3-| |--3-|
Q E Q E Q E Q E Q E Q E Q E Q
----------------------------------|---------------------------------|
----------------------------------|---------------------------------|
----------------------------------|---------------------------------|
--9----0--9----0--9----0--9----0--|--9----0--9----0--9----0---------|
--9----0--9----0--9----0--9----0--|--9----0--9----0--9----0---------|
--7----0--7----0--7----0--7----0--|--7----0--7----0--7----0--10\----|


|--3-| |--3-| |--3-| |--3-| |--3-| |--3-| |--3-| |--3-|
Q E Q E Q E Q E Q E Q E Q E Q E
----------------------------------|----------------------------------|
-------0-------0-------0-------0--|-------0-------0-------0-------0--|
--9----0--9----0--9----0--9----0--|--9----0--9----0--9----0--9----0--|
--9-------9-------9-------9-------|--9-------9-------9-------9-------|
--7-------7-------7-------7-------|--7-------7-------7-------7-------|
----------------------------------|----------------------------------|


|--3-| |--3-| |--3-| |--3-| |-----3----| |----3----|
Q E Q E Q E Q E Q Q Q Q Q Q
----------------------------------|---------------------------------|
-------0-------0-------0-------0--|---------------------------------|
--9----0--9----0--9----0--9----0--|-------------8-------------------|
--9-------9-------9-------9-------|--9----10----8----9----7----9----|
--7-------7-------7-------7-------|--9----10----6----9----7----9----|
----------------------------------|--7-----8---------7----5----7----|


|--3-| |--3-| |--3-| |--3-| |--3-| |--3-| |--3-| |--3-|
Q E Q E Q E Q E Q E Q E Q E Q E
----------------------------------|----------------------------------|
-------0-------0-------0-------0--|-------0-------0-------0-------0--|
--9----0--9----0--9----0--9----0--|--9----0--9----0--9----0--9----0--|
--9-------9-------9-------9-------|--9-------9-------9-------9-------|
--7-------7-------7-------7-------|--7-------7-------7-------7-------|
----------------------------------|----------------------------------|


|--3-| |--3-| |--3-| |--3-| |-----3----| |----3----|
Q E Q E Q E Q E Q Q Q Q Q Q
----------------------------------|---------------------------------|
-------0-------0-------0-------0--|---------------------------------|
--9----0--9----0--9----0--9----0--|-------------8-------------------|
--9-------9-------9-------9-------|--9----10----8----9----7----9----|
--7-------7-------7-------7-------|--9----10----6----9----7----9----|
----------------------------------|--7-----8---------7----5----7----|


|-----3----| |----3----| |-----3----| |----3----|
Q Q Q Q Q Q Q Q Q Q Q Q
---------------------------------|---------------------------------|
---------------------------------|---------------------------------|
-------------8-------------------|-------------8-------------------|
--9----10----8----9----7----9----|--9----10----8----9----7----9----|
--9----10----6----9----7----9----|--9----10----6----9----7----9----|
--7-----8---------7----5----7----|--7-----8---------7----5----7----|


|-----3----| |----3----|
Q Q Q Q Q Q E. H. S
---------------------------------|---------------------|
---------------------------------|---------------------|
-------------8-------------------|--9------------------|
--9----10----8----9----7----9----|--9------------------|
--9----10----6----9----7----9----|--7------------------|
--7-----8---------7----5----7----|---------------------|


W W W
-------------------|-------------------|-------------------|
-------------------|-------------------|-------------------|
-------------------|-------------------|-------------------|
-------------------|-------------------|-------------------|
-------------------|-------------------|-------------------|
-------------------|-------------------|-------------------|


The next four bars are played on the bass, but I tabbed it out for the guitar...

|--3--| |--3--| |--3--| |--3--|
Q E Q E Q E Q E
|------------------------------------------|
|------------------------------------------|
|------------------------------------------|
|------------------------------------------|
|---7-----7---7-----7---7-----7---7-----7--|
|------------------------------------------|


|----3---| |--3--| |--3--| |--3--|
E E E Q E Q E Q E
---------------------------------------------|
---------------------------------------------|
---------------------------------------------|
---------------------------------------------|
---5h---7---7---7-----7---7-----7---7-----7--|
---------------------------------------------|


|----3---| |--3--| |----3---| |--3--|
E E E Q E E E E Q E
------------------------------------------------|
------------------------------------------------|
------------------------------------------------|
--------------------------5h---7---7---7-----7--|
---5h---7---7---7-----7-------------------------|
------------------------------------------------|


|----3---| |--3--| |----3---| |--3--|
E E E Q E E E E Q E
-------------------------------------------------|
-------------------------------------------------|
-------------------------------------------------|
-------------------------------------------------|
---5h---7---7---7--------------------------------|
----------------------5---7----7---7---7-----7---|

SOLO
|---3--| |---3--| |---3--| |---3---|
E E E E E E E E E E E E
---------0---------0---------0----------0--|
--3s--5-----5s--7-----7s--8-----8s--10-----|
-------------------------------------------|
-------------------------------------------|
-------------------------------------------|
-------------------------------------------|


|--3-|
E Q Q E E E E Q H S E S
----------------------0------------|---0-----0--------------------|
--10s--12----L-------15s--17s--15--|--19----15--------15s-17s--15-|
-----------------------------------|------------------------------|
-----------------------------------|------------------------------|
-----------------------------------|------------------------------|
-----------------------------------|------------------------------|


|----3---| |----3---|
S E S H E E E H E E E Q
----------------------------------|------------------------------|
--8s-12--L-L--------10h--12p--8h--|--10~--------8h--10p--8--7----|
----------------------------------|------------------------------|
----------------------------------|------------------------------|
----------------------------------|------------------------------|
----------------------------------|------------------------------|


|---3---| |---3---|
Q E E E H E E E E H E
----------------------------|-------------------------------|
--L----7h--8p--5h--7--------|--7h--8p--7h--7s--12--------L--|
----------------------------|-------------------------------|
----------------------------|-------------------------------|
----------------------------|-------------------------------|
----------------------------|-------------------------------|


|-----3-----| |-----3-----|
Q Q Q H Q Q Q H
------------------------------|------------------------------|
------------------------------|------------------------------|
--------12----16b----L--------|--------12----16b----L--------|
--14--------------------------|--14--------------------------|
------------------------------|------------------------------|
------------------------------|------------------------------|


|-----3-----|
Q Q Q H
------------------------------|
------------------------------|
--------12----16b----L--------|
--14--------------------------|
------------------------------|
------------------------------|


|---3---| |---3---| |---3---| |---3---|
E E E E E E E E E E E E
--------------------------------------------------|
--19--15------------------19--15------------------|
----------16----------------------16--------------|
--------------19--17--16--------------19--17--16--|
--------------------------------------------------|
--------------------------------------------------|


|---3---| |---3---| |---3---| |---3---|
E E E E E E E E E E E E
--------------------------------------------------|
--19--15------------------19--15------------------|
----------16----------------------16--------------|
--------------19--17--16--------------19--17--16--|
--------------------------------------------------|
--------------------------------------------------|


E H. E W 6x
----------------------||---------------------||
--17------------------||---------------------||
----------------------||*-------------------*||
----------------------||*-------------------*||
----------------------||---------------------||
----------------------||---------------------||


This is what the second guitar plays over the solo

|---------3--------| |--3-| |--3-| |--3-|
Q E Q E Q E Q E
|------------------------------------------------|
|------------------------------------------------|
|--9------------------9--9----9--9----9--9----9--|
|--9------------------9--9----9--9----9--9----9--|
|--7------------------7--7----7--7----7--7----7--|
|------------------------------------------------|


|--3-| |--3-| |--3-| |--3-| |--3-| |--3-| |--3-| |--3-|
Q E Q E Q E Q E Q E Q E Q E Q E
----------------------------------|----------------------------------|
----------------------------------|----------------------------------|
--9----9--9----9--9----9--9----9--|--9----9--9----9--9----9--9----9--|
--9----9--9----9--9----9--9----9--|--9----9--9----9--9----9--9----9--|
--7----7--7----7--7----7--7----7--|--7----7--7----7--7----7--7----7--|
----------------------------------|----------------------------------|


|--3-| |--3-| |--3-| |--3-|
Q E Q E Q E Q E W
----------------------------------|-------------------|
----------------------------------|-------------------|
--9----9--9----9--9----9--9----9--|--9----------------|
--9----9--9----9--9----9--9----9--|--9----------------|
--7----7--7----7--7----7--7----7--|--7----------------|
----------------------------------|-------------------|


W W W
--------------------|--------------------|--------------------|
--------------------|--------------------|--------------------|
--11----------------|--12----------------|--14----------------|
--11----------------|--12----------------|--14----------------|
---9----------------|--10----------------|--12----------------|
--------------------|--------------------|--------------------|


W W W
--------------------|--------------------|--------------------|
--12----------------|--14----------------|--15----------------|
--11----------------|--13----------------|--14----------------|
---9----------------|--11----------------|--12----------------|
--------------------|--------------------|--------------------|
--------------------|--------------------|--------------------|


|--3-|
W Q E H.
--------------------|------------------------|
--16----------------|--17--------------------|
--15----------------|--16--------------------|
--13----------------|--14--------------------|
--------------------|------------------------|
--------------------|------------------------|

Once again, the next bar is originlally a bass riff, but transcribed as guitar...

Q Q Q Q
|---------------------|
|---------------------|
|---------------------| Play this eight times, but on the eighth time, the
|---------------------| riff below (which is played by guitar) begins...
|------7---------7----|
|-0---------0---------|

NH
Q Q Q Q E E E E E E E E
--------------------------|--------------------------|
------------7-----------|--------8-----------8-----|
------------7-----------|--------9-----------9-----|
--------------------------|--------9-----------9-----|
--------------------------|--------------------------|
-------------------10\----|--0-----------0-----------|


|--3--|
E E E E E E Q E E E E E E E E E
-----------------------------|--------------------------|
--------8-----------8p----7--|--8-----8-----------8-----|
--------9-----------9-----7--|--9-----9-----------9-----|
--------9-----------9-----7--|--9-----9-----------9-----|
-----------------------------|--------------------------|
--0-----------0--------------|--------------0-----------|


|--3--|
E E E E E E Q E E E E E E E E E
-----------------------------|----------------------------|
--------8-----------8p----7--|--------10-----------10-----|
--------9-----------9-----7--|--8------8-----8------8-----|
--------9-----------9-----7--|--9------9-----9------------|
-----------------------------|--9------9-----9------9-----|
--0-----------0--------------|--7------7-----7------7-----|


|--3-|
E E E E E E Q E E E E E E E E E
------------------------------|------------------------------|
--------10-----------10----0--|--11-----11-----11-----11-----|
--8------8-----8------8----0--|--12-----12-----12-----12-----|
--9------9-----9------9----0--|--13-----13-----13-----13-----|
--9------9-----9------9----0--|--13-----13-----13-----13-----|
--7------7-----7------7-------|--11-----11-----11-----11-----|


|--3-| |--3-|
E E E E Q E Q E E E E E E. S E E
----------------------------------|-----------------------------|
--11-----11-----11----0--------0--|--------10-----10p---8-------|
--12-----12-----12----0--12----0--|---------9------9------9-----|
--13-----13-----13----0--13----0--|---------9------9------9-----|
--13-----13-----13----0--13----0--|-----------------------------|
--11-----11-----11-------11-------|--0--------------------------|


NH
E E E. S E E Q E E E E E. S E E
------------------------------|-----------------------------|
--10-----10p---8-------7----|--------10-----10p---8-------|
---9------9------9-----7----|---------9------9------9-----|
---9------9------9------------|---------9------9------9-----|
------------------------------|-----------------------------|
------------------------------|--0--------------------------|


E E E. S E E E. S E E E E E E E E
--------------------------------|---------------------------|
--10-----10p---8-10-----10p---8-|--------------------10-----|
---9------9-------9------9------|--8-----8-----8------8-----|
---9------9-------9------9------|--9-----9-----9------9-----|
--------------------------------|--9-----9-----9------9-----|
--------------------------------|--7-----7-----7------7-----|


|--3-| |--3-|
E E E E Q E Q E E E E E E E E E
---------------------------------|------------------------------|
--------10-----10----0--10----0--|--11-----11-----11-----11-----|
--8------8------8----0---8----0--|--12-----12-----12-----12-----|
--9------9------9----0---9----0--|--13-----13-----13-----13-----|
--9------9------9----0---9----0--|--13-----13-----13-----13-----|
--7------7------7--------7-------|--11-----11-----11-----11-----|


E E E E E E E E Q Q Q Q
------------------------------|--12---------12---------|
--11-----11-----11-----11-----|--12---------12---------|
--12-----12-----12-----12-----|--12---------12---------|
--13-----13-----13-----13-----|---9----------9---------|
--13-----13-----13-----13-----|------------------------|
--11-----11-----11-----11-----|------------------------|


Q Q Q Q Q H.
--12---------12---------|--12-----------------|---------------||
--12---------12---------|--12-----------------|---------------||
--12---------12---------|--12-----------------|---------------||
---9----------9---------|---9-----------------|---------------||
------------------------|---------------------|---------------||
------------------------|---------------------|---------------||


Duration Legend
---------------
W - whole
H - half
Q - quarter
E - 8th
S - 16th
T - 32nd
X - 64th
. - note dotted
|-n-| - n-tuplets


Tablature Legend
----------------
L - tied note
x - dead note
g - grace note
(n) - ghost note
> - accentuded note
NH - natural harmonic
AH - artificial harmonic
TH - tapped harmonic
SH - semi harmonic
PH - pitch harmonic
h - hammer on
p - pull off
b - bend
br - bendRelease
pb - preBend
pbr - preBendRelease
brb - bendReleaseBend
\n/ - tremolo bar dip
\n - tremolo bar dive
-/n - tremolo bar Release up
/n\ - tremolo bar inverted dip
/n - tremolo bar return
-\n - tremolo bar Release down
S - shift slide
s - legato slide
/ - slide into from below or out of upwards
\ - slide into from above or out of downwards
~ - vibrato
W - wide vibrato
tr - trill
TP - tremolo picking
T - tapping
S - slap
P - pop




Suggest correction


What's this?

You can suggest a correction to this tab. Community and Mods will review your correction and vote to approve or reject it.




Song info
No One Knows
Queens of the Stone Age
2001
  • Rock
  • Stoner Rock
Alternative tracks
Similar songs
The Way You Used to Do - Queens of the Stone Age
Walkin On The Sidewalks - Queens of the Stone Age
If Only - Queens of the Stone Age
Shine - Kyuss
Someones In The Wolf - Queens of the Stone Age

Hi! Hope you enjoy backing track experience.
If you want to help us in the development of the project, feel free to donate!