Strange - R.E.M.
00:00 / 00:00
Tabs and lyrics
Tunning: Standard (E A D G B e)
[Fill]
e|------------|
B|------------|
G|------------|
D|---2p0---0--|
A|-------3----|
E|------------|

[Pattern 1]
C Fmaj7 C Fmaj7
e|---------3-----------3-----|-------3-----------3------|
B|-----------1-------1---1---|---------1-------1---1----|
G|-------0-----0---2-------2-|-----0-----0---2-------2--|
D|-----2---------3-----------|--2----------3------------|
A|---3-----------------------|-3------------------------|
E|---------------------------|--------------------------|

[Pattern 2]
C Fmaj7 Am7 Dm G
e|---------3-----------------|-------1-----------3------|
B|-----------1-------1-----1-|-----3---3-------3---3----|
G|-------0-----0---2-----0---|---2-------2---0-------0--|
D|-----2---------3-----2-----|-0------------------------|
A|---3-----------------------|--------------------------|
E|---------------------------|-------------3------------|

[Fill]
[Pattern 1]
C Fmaj7 C Fmaj7
e|---------3-----------3-----|-------3-----------3------|
B|-----------1-------1---1---|---------1-------1---1----|
G|-------0-----0---2-------2-|-----0-----0---2-------2--|
D|-----2---------3-----------|--2----------3------------|
A|---3-----------------------|-3------------------------|
E|---------------------------|--------------------------|

[Pattern 1]
C Fmaj7 C Fmaj7
e|---------3-----------3-----|-------3-----------3------|
B|-----------1-------1---1---|---------1-------1---1----|
G|-------0-----0---2-------2-|-----0-----0---2-------2--|
D|-----2---------3-----------|--2----------3------------|
A|---3-----------------------|-3------------------------|
E|---------------------------|--------------------------|
I don't know why you're mean to me

[Pattern 2]
C Fmaj7 Am7 Dm G
e|---------3-----------------|-------1-----------3------|
B|-----------1-------1-----1-|-----3---3-------3---3----|
G|-------0-----0---2-----0---|---2-------2---0-------0--|
D|-----2---------3-----2-----|-0------------------------|
A|---3-----------------------|--------------------------|
E|---------------------------|-------------3------------|
When I call on the telephone

[Pattern 1]
C Fmaj7 C Fmaj7
e|---------3-----------3-----|-------3-----------3------|
B|-----------1-------1---1---|---------1-------1---1----|
G|-------0-----0---2-------2-|-----0-----0---2-------2--|
D|-----2---------3-----------|--2----------3------------|
A|---3-----------------------|-3------------------------|
E|---------------------------|--------------------------|

I don't know what you mean to me, but I want to turn you on

[Pattern 2]
C Fmaj7 Am7 Dm G
e|---------3-----------------|-------1-----------3------|
B|-----------1-------1-----1-|-----3---3-------3---3----|
G|-------0-----0---2-----0---|---2-------2---0-------0--|
D|-----2---------3-----2-----|-0------------------------|
A|---3-----------------------|--------------------------|
E|---------------------------|-------------3------------|
turn you up, figure you out, I want to take you on

C G F C Dm G
e|--3-----3-----1-----3---|------1-----------3-----|
B|----3-----3-----1-----3-|----3---2-------3---3---|
G|5-----------------5-----|--2-------3---0-------0-|
D|5-----5-----3-----5-----|0-----------------------|
A|3-----5-----3-----3-----|------------------------|
E|------3-----1-----------|------------3-----------|
These words, "You will be mine"

C G F C Dm G
e|--3-----3-----1-----3---|------1-----1-----1-----|3-----3---3---------|
B|----3-----3-----1-----3-|3---3---3-----3-----3---|3---3---3-3---------|
G|5-----------------5-----|2-2-------2-----2-----2-|0-0-------0---------|
D|5-----5-----3-----5-----|0-----------------------|-------------2p0---0|
A|3-----5-----3-----3-----|------------------------|-----------------3--|
E|------3-----1-----------|------------------------|3---------3---------|
These words, "You will be mine," all the time,

[Pattern 1]
C Fmaj7 C Fmaj7
e|---------3-----------3-----|-------3-----------3------|
B|-----------1-------1---1---|---------1-------1---1----|
G|-------0-----0---2-------2-|-----0-----0---2-------2--|
D|-----2---------3-----------|--2----------3------------|
A|---3-----------------------|-3------------------------|
E|---------------------------|--------------------------|

The Fool might be my middle name

[Pattern 2]
C Fmaj7 Am7 Dm G
e|---------3-----------------|-------1-----------3------|
B|-----------1-------1-----1-|-----3---3-------3---3----|
G|-------0-----0---2-----0---|---2-------2---0-------0--|
D|-----2---------3-----2-----|-0------------------------|
A|---3-----------------------|--------------------------|
E|---------------------------|-------------3------------|
But I'd be foolish not to say

[Pattern 1]
C Fmaj7 C Fmaj7
e|---------3-----------3-----|-------3-----------3------|
B|-----------1-------1---1---|---------1-------1---1----|
G|-------0-----0---2-------2-|-----0-----0---2-------2--|
D|-----2---------3-----------|--2----------3------------|
A|---3-----------------------|-3------------------------|
E|---------------------------|--------------------------|

I'm going to make whatever it takes, ring you up, call you down, sign your
name, secret love,


[Pattern 2]
C Fmaj7 Am7 Dm G
e|---------3-----------------|-------1-----------3------|
B|-----------1-------1-----1-|-----3---3-------3---3----|
G|-------0-----0---2-----0---|---2-------2---0-------0--|
D|-----2---------3-----2-----|-0------------------------|
A|---3-----------------------|--------------------------|
E|---------------------------|-------------3------------|
make it rhyme, take you in, and make you mine.

C G F C Dm G
e|--3-----3-----1-----3---|------1-----------3-----|
B|----3-----3-----1-----3-|----3---2-------3---3---|
G|5-----------------5-----|--2-------3---0-------0-|
D|5-----5-----3-----5-----|0-----------------------|
A|3-----5-----3-----3-----|------------------------|
E|------3-----1-----------|------------3-----------|
These words, "You will be mine"

C G F C Dm G
e|--3-----3-----1-----3---|------1-----1-----1-----|3-----3---3---------|
B|----3-----3-----1-----3-|3---3---3-----3-----3---|3---3---3-3---------|
G|5-----------------5-----|2-2-------2-----2-----2-|0-0-------0---------|
D|5-----5-----3-----5-----|0-----------------------|-------------2p0---0|
A|3-----5-----3-----3-----|------------------------|-----------------3--|
E|------3-----1-----------|------------------------|3---------3---------|
These words, "You will be mine," all the time,

Am G Am G
e|------0-----3-----3-----|------0-----3-----3-----|
B|1-------1---3-------3---|1-------1---3-------3---|
G|2---------2-0---------0-|2---------2-0---------0-|
D|2-----------0-----------|2-----------0-----------|
A|0-----------x-----------|0-----------x-----------|
E|x-----------3-----------|x-----------3-----------|

I tripped and fell, did I fall.

Am F C Dm G G
e|------0-----------------|1-----1-----1-----1-----|3-----3-----3-------|
B|1-------1---------------|3---3---3-----3-----3---|3---3---3---3-------|
G|2---------2-------5-----|2-2-------2-----2-----2-|0-0------0--0-------|
D|2-----------3-----5-----|0-----------------------|0-----------0-------|
A|0-----------3-----3-----|------------------------|--------------------|
E|x-----------1-----------|------------------------|3-----------3-------|
What I want to feel, I want to feel it now.

[Pattern 1]
C Fmaj7 C Fmaj7
e|---------3-----------3-----|-------3-----------3------|
B|-----------1-------1---1---|---------1-------1---1----|
G|-------0-----0---2-------2-|-----0-----0---2-------2--|
D|-----2---------3-----------|--2----------3------------|
A|---3-----------------------|-3------------------------|
E|---------------------------|--------------------------|

You know with love comes strange currencies,

[Pattern 2]
C Fmaj7 Am7 Dm G
e|---------3-----------------|-------1-----------3------|
B|-----------1-------1-----1-|-----3---3-------3---3----|
G|-------0-----0---2-----0---|---2-------2---0-------0--|
D|-----2---------3-----2-----|-0------------------------|
A|---3-----------------------|--------------------------|
E|---------------------------|-------------3------------|
And here is my appeal:

[Pattern 1]
C Fmaj7 C Fmaj7
e|---------3-----------3-----|-------3-----------3------|
B|-----------1-------1---1---|---------1-------1---1----|
G|-------0-----0---2-------2-|-----0-----0---2-------2--|
D|-----2---------3-----------|--2----------3------------|
A|---3-----------------------|-3------------------------|
E|---------------------------|--------------------------|

I need a chance, a second chance, a third chance, a fourth chance,
a word, a signal, a nod, a little breath

[Pattern 2]
C Fmaj7 Am7 Dm G
e|---------3-----------------|-------1-----------3------|
B|-----------1-------1-----1-|-----3---3-------3---3----|
G|-------0-----0---2-----0---|---2-------2---0-------0--|
D|-----2---------3-----2-----|-0------------------------|
A|---3-----------------------|--------------------------|
E|---------------------------|-------------3------------|
just to fool myself, to catch myself, to make it real, real

C G F C Dm G
e|--3-----3-----1-----3---|------1-----------3-----|
B|----3-----3-----1-----3-|----3---2-------3---3---|
G|5-----------------5-----|--2-------3---0-------0-|
D|5-----5-----3-----5-----|0-----------------------|
A|3-----5-----3-----3-----|------------------------|
E|------3-----1-----------|------------3-----------|
These words, "You will be mine"

C G F C Dm G
e|--3-----3-----1-----3---|------1-----1-----1-----|3-----3---3---------|
B|----3-----3-----1-----3-|3---3---3-----3-----3---|3---3---3-3---------|
G|5-----------------5-----|2-2-------2-----2-----2-|0-0-------0---------|
D|5-----5-----3-----5-----|0-----------------------|-------------2p0---0|
A|3-----5-----3-----3-----|------------------------|-----------------3--|
E|------3-----1-----------|------------------------|3---------3---------|
These words, "You will be mine," all the time, oh

C G F C Dm G
e|--3-----3-----1-----3---|------1-----------3-----|
B|----3-----3-----1-----3-|----3---2-------3---3---|
G|5-----------------5-----|--2-------3---0-------0-|
D|5-----5-----3-----5-----|0-----------------------|
A|3-----5-----3-----3-----|------------------------|
E|------3-----1-----------|------------3-----------|
These words, "You will be mine"

C G F C Dm G
e|--3-----3-----1-----3---|------1-----1-----1-----|3-----3---3---------|
B|----3-----3-----1-----3-|3---3---3-----3-----3---|3---3---3-3---------|
G|5-----------------5-----|2-2-------2-----2-----2-|0-0-------0---------|
D|5-----5-----3-----5-----|0-----------------------|-------------2p0---0|
A|3-----5-----3-----3-----|------------------------|-----------------3--|
E|------3-----1-----------|------------------------|3---------3---------|
These words, they haunt me, hunt me down, catch in my throat, make me pray,
say, love's comfined, oh


************************************

| p Pull-off
| x Dead note

************************************
Song info
Strange
R.E.M.
2001
  • Rock
  • Alternative Rock
  • Pop Rock
Similar songs
Broken Wings - Mr. Mister
Through The Barricades - Spandau Ballet
Alive - Pearl Jam
Darklands - The Jesus and Mary Chain

Hi! Hope you enjoy backing track experience.
If you want to help us in the development of the project, feel free to donate!