Knives Out - Radiohead
00:00 / 00:00
Tabs and lyrics
Tunning: Standard (E A D G B e)
Knives out
Radiohead

Cm- (8x088x)
Bbadd6- (6x878x)
Ab- (4x654x) or can also try Ab9- (4x554x) I think Thom switches back and
forth between these two quickly in some parts of the song.
Gm- (3x033x)
Fsus2- (1x023x)
Em6- (02202x)
F#- (2x02xx)
G- (3x0xxx)
Am- (5x755x)
Dm- (xx0231)
Dm/C- (x3023x)
Bb9- (6x076x)

Intro

Cm Bbadd6 Ab
e----------------------------------------------------------------------|
B--------8----------------8-------------4----------------------4-------|
G----8-8---8-8--------7-7---7-7-----5-----5-5----5-5---5---5------5--4-|
D-------------------------------------6-------5------6-------6---------|
A----------------------------------------------------------------------|
E----------------------------------------------------------------------|

Gm Fsus2 Em6 (F# G)
e---------------------------------------------------------------------|
B--------3--------------3-----------2------------------2--------------|
G----3-3---3-3------2-2---2-2-0-------0---0------0-0----------0-0-0---|
D---------------------------------2-----2------2-----2------2-------2-|
A---------------------------------------------------------------------|
E---------------------------------------------------------------------|


Verse1

I want you to know
Cm Bbadd6 Ab
e---------------------------------------------------------------------|
B------8--------------8-------------4---------------------------------|
G--8-8---8-8------7-7---7-7-----5-----5-5------5-5---0----5-----------|
D---------------------------------6----------6-----5------------------|
A---------------------------------------------------------------------|
E---------------------------------------------------------------------|


he's not coming back
Gm Fsus2 Em6 (F# G)
e----------------------------------------------------------------------|
B-------3---------------3--------------2---------------2----------2----|
G---3-3---3-3-------2-2---2-2------0-----0-0-----0-0--------0-0------0-|
D------------------------------------2---------2-----2----2-----2------|
A----------------------------------------------------------------------|
E----------------------------------------------------------------------|

he's bloated and frozen still there's
Cm Bbadd6 Ab
e---------------------------------------------------------------------|
B------8--------------8---------------4-----4-------------------------|
G--8-8---8-8------7-7---7-7-------5-----5-5------5---5-5-----5----0---|
D-----------------------------------6--------------6------6-----------|
A---------------------------------------------------------------------|
E---------------------------------------------------------------------|

no point in letting it go to waste
Gm Fsus2 Em6
e----------------------------------------------------------------------|
B--------3--------------3---------------2-----2----------------------2-|
G----3-3---3-3------2-2---2-2-------0-----0--------0---0-0-0-------0---|
D-------------------------------------2-----2--------2-------2---2-----|
A----------------------------------------------------------------------|
E----------------------------------------------------------------------|


Chorus
so knives out cook him up
Am Gm Dm Dm/C
e------------------------------0-1--------------2-------2----0--2-----|
B---1--------------2-----2---3---------3------3---3---3---3-----------|
G-----2--------------2-----2--------------2---------2-----------------|
D-------2--------------2----------------------------------------------|
A---------------------------------------------------------------------|
E---------------------------------------------------------------------|

don't look down shove it in your mouth
Bb9 Em6
e---------3-------3-----3----------------------------------------------|
B-------3---3---3---3--3--3-----------2-----2--------2---------------2-|
G-----3-------3-------3-----3-------0---0--------0-----0-----0-0---0---|
D---------------------------------2-------2--------2-----2-------2--2--|
A----------------------------------------------------------------------|
E----------------------------------------------------------------------|

Verse2

if you'd been a dog they would of
Cm Bbadd6 Ab
e---------------------------------------------------------------------|
B-----------11-----------------11----------11-----------9--------8--4-|
G-----12-12----12-12-----12-12----12-----8----8-8-----8---8----8------|
D--13---------------------------------10----------10--------10--------|
A---------------------------------------------------------------------|

E---------------------------------------------------------------------

drowned you at birth
Gm Fsus2 Em6
e---------------------------------------------------------------------|
B-------3------------------3-----------------------------2------2-----|
G---3-3---3-3----------2-2---2-2--------0-0--0----0---0-----0---------|
D-------------------------------------2----2--------2-----------------|
A---------------------------------------------------------------------|
E---------------------------------------------------------------------|


look into my eyes it's the
Cm Bbadd6 Ab
e---------------------------------------------------------------------|
B-----------13--------------13--------------8--------8---8---8---8----|
G-----12-12----12-12-----12----12---------8---8----8---8-------8----8-|
D--13----------------------------------10-------10--------------------|
A---------------------------------------------------------------------|
E---------------------------------------------------------------------|

only way you'll know I'm telling the truth
Gm Fsus2 Em6
e----------------------------0-----------------------------------------|
B---------3--------------------3------------2-0-3-3-2------2-0-3-3-2---|
G---3-3-3---3------------2-2--------------------------0--------------0-|
D-----------------------------------------2--------------2-------------|
A----------------------------------------------------------------------|
E----------------------------------------------------------------------|

Chorus

so knives out cook him up
Am Gm Dm Dm/C
e------------------------------0-1--------------2-------2----0--2-----|
B---1--------------2-----2---3---------3------3---3---3---3-----------|
G-----2--------------2-----2--------------2---------2-----------------|
D-------2--------------2----------------------------------------------|
A---------------------------------------------------------------------|
E---------------------------------------------------------------------|

squash his head put him in the pot
Bb9 Em6
e------3-----------3-------3-------------------------------------------|
B----3---3---3---3---3---3--------0---2---3-3---2-0------0---2-3-3-2-0-|
G--3-------3---3-------3--------0---0---0-----0--------0---0-----------|
D-----------------------------2----------------------2-----------------|
A----------------------------------------------------------------------|
E----------------------------------------------------------------------|


Solo

Cm Bbadd6 Ab
e----------------------------------------------------------------------|
B----------------------------------------------------------------------|
G--0--8------------0---7-------------0--5--5-5-5-5-555555-5-5-55---5-5-|
D----------------------------------------------------------------------|
A----------------------------------------------------------------------|
E----------------------------------------------------------------------|


Gm Fsus2 Em6
e---------------------------------------------------------------------|
B---------------------------------------------------------------------|
G---0--7--7--7--7---------0----5--5--5--5------------0-----0-----0----|
D-------------------------------------------------------2-----2-----2-|
A---------------------------------------------------------------------|
E---------------------------------------------------------------------|


Chorus


Verse4
I want you to know
Cm Bbadd6 Ab
e----------------------------------------------------------------------|
B--------11-----------------11---------------8------------8--------8---|
G--12-12----12-12-----12-12----12----------0---8----0-------0----0---0-|
D---------------------------------------10-------10---10------10-------|
A------------------------------------11--------------------------------|
E----------------------------------------------------------------------|

he's not coming back
Gm Fsus2 Em6
e----------------------------------------------------------------------|
B-------3---------------3-----------------2-------2-----2---2---2--2---|
G---3-3---3-3-------2-2---2-2-----------0---0--------0----0---0---0--0-|
D-------------------------------------2-------2------------------------|
A----------------------------------------------------------------------|
E----------------------------------------------------------------------|

look into my eyes it's the
Cm Bbadd6 Ab
e---------------------------------------------------------------------|
B---------11----------------11-------------4---4---4---4----4---------|
G---12-12----12-12----12-12----12-----5------5---5---5---5-----5------|
D-----------------------------------6---6-----------------------------|
A---------------------------------------------------------------------|
E---------------------------------------------------------------------|

only way you'll know I'm telling the truth
Gm Fsus2 Em6
e----------------------------------------------------------------------|
B-------3------------------3----------------2-0-3-3--2-0-----2-0-33-20-|
G---3-3---3-3----------2-2---2-2---------0----------------0------------|
D----------------------------------------------------------------------|
A----------------------------------------------------------------------|
E----------------------------------------------------------------------|

Chorus


________________________________________________________________________________

(For those who want to play the Thom Yorke acoustic guitar part!)

First the chords:
EADGHE
1 - (8xx88x)
2 - (6xx88x)
3 - (4xx54x)
4 - (3x0330)
5 - (13x23x)
6 - (022020)
7 - (5xx55x)
8 - (5xx65x)
9 - (xx0231)
10 -(x30231)
11 -(x13331)

INTRO
1 2 3 4 5 6

VERSE
1 2 3
I want you to know
4 5 6
He's not coming back
1 2 3
He's bloated and frozen
4 5 6
Still there's no point in letting it go to waste

REFRAIN
7 8
So knives out
9 10
Cook him up
11
Don't look down
4 6
Shove it in your mouth

VERSE
If you'd been a dog
They would have drowned you at birth

REFRAIN
So knives out
Catch the mouse
Squash his head
Put him in the pot

So knives out
Catch the mouse
Don't look down
Shove it in your mouth

CLIMB
1 2 3 4 5 6 1 2 3 4 5 6

VERSE
I want you to know
He's not coming back
Look into my eyes
It's the only way you'll know I'm telling the truth

REFRAIN
So knives out
Catch the mouse
Squash his head
Put him in the pot
Tunning: Standard (E A D G B e)
Radiohead - Knives out

I haven't seen a descent tab yet so...This should be correct


Knives Out


Guitar 1 (Lead) : John greenwood

e|------------------------|------------------------|------------------------------|
B|-------------8--8-------|-------------8--8-------|-------------4--4-------------|
G|-------8--8--------8----|-------7--7--------7----|-------5--5--------5----------|
D|------------------------|------------------------|------------------------------|
A|------------------------|------------------------|------------------------------|
E|--8---------------------|--6---------------------|--4---------------------------|

e|-------------------------|-------------------------|------------------------|
B|----------------------4--|--------------4----------|-------------3--3-------|
G|-------------5--5--------|--------5--------5-------|-------3--3--------3----|
D|-------5--5--------5-----|-----5-----5--------5----|------------------------|
A|-------------------------|-------------------------|------------------------|
E|--4----------------------|--4----------------------|--3---------------------|

e|------------------------|-------------0----------|--------------------|
B|-------------3--3-------|----------------3----2--|--------------------|
G|-------2--2--------2----|-------0--0-------------|--------0-----------|
D|------------------------|------------------------|-------------2------|
A|------------------------|------------------------|--------------------|
E|--1---------------------|--0---------------------|--------------------|

e|-------------0----------|---------------------|------------------------|
B|----------------3----2--|---------------------|-------------8--8-------|
G|----------0-------------|---------0-----------|-------8--8--------8----|
D|-------2----------------|----2---------2------|------------------------|
A|------------------------|---------------------|------------------------|
E|--0---------------------|---------------------|--8---------------------|

e|------------------------|-------------------------|------------------------|
B|-------------8--8-------|-------------4--4--------|---------------------4--|
G|-------7--7--------7----|-------5--5--------5-----|------------5--5--------|
D|------------------------|----------------------5--|------5--5--------5-----|
A|------------------------|-------------------------|------------------------|
E|--6---------------------|--4----------------------|------------------------|

e|-----------------------|------------------------|------------------------|
B|-----------------------|-------------3--3-------|-------------3--3-------|
G|------------5--5-------|-------3--3--------3----|-------2--2--------2----|
D|------5--5--------5----|------------------------|------------------------|
A|-----------------------|------------------------|------------------------|
E|-----------------------|--3---------------------|--1---------------------|

e|-------------------------|------------------------|-------------------------|
B|-------------2--2--------|------------------------|-------------------------|
G|-------0--0--------0-----|-------------0--0-------|----------------------0--|
D|----------------------2--|-------2--2--------2----|-------------2--2--------|
A|-------------------------|------------------------|-------2--2--------2-----|
E|--0----------------------|--0---------------------|--0----------------------|

e|-----------------------|------------------------|------------------------|
B|-----------------------|-------------8--8-------|-------------8--8-------|
G|-------0---------------|-------8--8--------8----|-------7--7--------7----|
D|---------------2-------|------------------------|------------------------|
A|-----------------------|------------------------|------------------------|
E|--0-------2-------3----|--8---------------------|--6---------------------|

e|-------------------------|----------------------3--|----------------------|
B|-------------4--4--------|-------------4-----------|----4----------4------|
G|-------5--5--------5-----|----------5-----5--------|---------5------------|
D|----------------------5--|-------5-----------5-----|------------5---------|
A|-------------------------|-------------------------|----------------------|
E|--4----------------------|--4----------------------|----------------------|

e|------------------------|---------------------|-------------0----------|
B|-------------3--3-------|------------3--------|----------------3----2--|
G|-------3--3--------3----|-------2-------------|----------0-------------|
D|------------------------|---------------------|-------2----------------|
A|------------------------|---------------------|------------------------|
E|--3---------------------|--1------------------|----0-------------------|

e|--------------------|------------------------|---------------------|
B|--------------------|------------------------|---------------------|
G|--------------------|------------------------|---------------------|
D|--------2-----------|-----2-------2--0-------|---------2-----------|
A|-------------2------|----------2----------4--|---------0-----------|
E|--------------------|--0---------------------|----0---------0------|

e|---------------------|----------------------|----------------------|
B|--1------------------|--2-------------------|--2---------3----5----|
G|-------2-------------|-------2--------------|-------2--------------|
D|------------2--------|------------2---------|----------------------|
A|---------------------|----------------------|----------------------|
E|---------------------|-----------------3----|----------------------|

e|----------------------|----------------------|----------------------|
B|--6-------------------|--7-------------------|--7---------5----7----|
G|-------7--------------|-------7--------------|-------7--------------|
D|------------7---------|------------7---------|----------------------|
A|-----------------0----|-----------------0----|----------------------|
E|----------------------|----------------------|----------------------|

e|--3----------3-------|---------3------------|----------3----3-------|
B|--3------------------|-------------------3--|--3--------------------|
G|--0------------------|--------------0-------|-----------------------|
D|--0-------------1----|--0-------------------|--0----0----------1----|
A|---------------------|----------------------|-----------------------|
E|--3------------------|----------------------|-----------------------|

e|---------3----------|-------------------------|----------------------|
B|---------3----------|-------------------------|----------------------|
G|---------0----------|-------------------------|-------------------0--|
D|--0-----------------|-----0-----0-----0-------|----------------------|
A|--------------------|--4-----4-----4-------4--|----2---------2-------|
E|--------------------|-------------------------|---------0----0-------|

e|-------------------------|---------------------|--------------6----------|
B|-------------------------|---------------------|--------8--------8----8--|
G|-------------------------|--------------0------|-----8-----8-------------|
D|-----0-----0-----0-------|--------------2------|-------------------------|
A|--4-----4-----4-------4--|----2----------------|-------------------------|
E|-------------------------|---------0-----------|--8----------------------|

e|--------------6---------|--------------3----------|--------3----------------|
B|--------8--------8------|--------4-------------4--|-----4-----4-----4-------|
G|-----7-----7------------|-----5-----5-------5-----|--------------5----------|
D|------------------------|-------------------------|----------------------5--|
A|------------------------|-------------------------|-------------------------|
E|--6---------------------|--4----------------------|--4----------------------|

e|--4--3-------------------|--------------1----------|--------------1----------|
B|-----------4-------------|--------3--------3----3--|--------3--------3----2--|
G|----------------5--------|-----------3-------------|-----------2-------------|
D|--------5----------5-----|-----5-------------------|-----3-------------------|
A|----------------------6--|-------------------------|-------------------------|
E|-------------------------|--3----------------------|--1----------------------|

e|---------------------0--|----------------------|----------------------0--|
B|--------2---------------|----3----2------------|--------2-------3--------|
G|----------------0-------|--------------0-------|-------------0-----0-----|
D|-----2-------2----------|-------------------2--|-----2-------------------|
A|------------------------|----------------------|-------------------------|
E|--0---------------------|----------------------|--0----------------------|

e|---------------------|--------6-----8--6-------|--------6-----8--6------|
B|----3----2-----------|-----------8----------8--|-----------8------------|
G|--------------0------|-----8-------------------|-----7------------------|
D|---------------------|-------------------------|------------------------|
A|---------------------|-------------------------|------------------------|
E|---------------------|--8----------------------|--6---------------------|

e|--------------3-----------|----3--------------4--|----3----------------|
B|--------4--------4-----4--|---------4------------|---------4-----------|
G|-----5-----5--------5-----|--------------5-------|--------------5------|
D|--------------------------|----------------------|---------------------|
A|--------------------------|----------------------|---------------------|
E|--4-----------------------|----------------------|---------------------|

e|--------------1----------|--------------1----------|--------------0----------|
B|--------3--------3----3--|--------3--------3-------|--------2--------3----2--|
G|-----------3-------------|-----------2----------0--|-------------------------|
D|-----5-------------------|-----3-------------------|-----2-----2-------------|
A|-------------------------|-------------------------|-------------------------|
E|--3----------------------|--1----------------------|--0----------------------|

e|------------------------|------------------------|--------------------0--|
B|------------------------|------------------------|-----0----2----3-------|
G|----0----------------0--|----------0----0-----0--|-----------------------|
D|---------2-----2--------|----2-------------2-----|--2--------------------|
A|------------------------|------------------------|-----------------------|
E|------------0-----0-----|-------0----------------|-----------------------|

e|--------------------------------|--------------------------------|
B|-----------------1--------------|-----------------2--------------|
G|------------2---------2---------|------------2---------2---------|
D|-------2-------------------2----|-------2-------------------2----|
A|--0-----------------------------|--------------------------------|
E|--------------------------------|--3-----------------------------|

e|---------------------------0----|-----------------1--------------|
B|-----------------2----3---------|------------3---------3---------|
G|------------2-------------------|-------2-------------------2----|
D|-------2------------------------|--0-----------------------------|
A|--------------------------------|--------------------------------|
E|--3-----------------------------|--------------------------------|

e|-----------------2--------------|----------------------0----2----|
B|------------3---------3---------|------------3----3--------------|
G|-------2-------------------2----|-------2------------------------|
D|--------------------------------|--------------------------------|
A|--3-----------------------------|--3-----------------------------|
E|--------------------------------|--------------------------------|

e|--3------3----3-----3--|---------3-----3-----3--|----------3----3-----3--|
B|--3--------------------|------------------------|------------------------|
G|--0--------------------|------------------------|-------3----------------|
D|--0--------------1-----|--0---------------0-----|--0---------------1-----|
A|-----------------------|------------3-----------|------------------------|
E|--3--------------------|------------------------|------------------------|

e|----------3-------------|-----------------------|-----------------------|
B|----------------3-------|-----------------------|-----------------------|
G|-------3----------------|---------0-------------|-----------------------|
D|--0----------------0----|------4-----4--2----0--|---------0----2--------|
A|-------------3----------|-----------------------|----4------------------|
E|------------------------|-----------------------|-----------------0--0--|

e|------------------------|-----------------------|------------------------|
B|------------------------|-----------------------|-------------8--8-------|
G|----------0-------------|-----------------------|-------8--8--------8----|
D|-------4-----4--2----0--|-----------------------|------------------------|
A|------------------------|----4----2----0-----0--|------------------------|
E|--0---------------------|-----------------0-----|--8---------------------|

e|------------------------|------------------------|-------------------------|
B|-------------8--8-------|-------------4--4-------|----------------------4--|
G|-------7--7--------7----|-------5--5--------5----|-------------5--5--------|
D|------------------------|------------------------|-------5--5--------5-----|
A|------------------------|------------------------|-------------------------|
E|--6---------------------|--4---------------------|--4----------------------|

e|---------------------|------------------------|------------------------|
B|--------------4------|-------------3--3-------|-------------3--3-------|
G|----5----------------|-------3--3--------3----|-------2--2--------2----|
D|---------5-----------|------------------------|------------------------|
A|---------------------|------------------------|------------------------|
E|---------------------|--3---------------------|--1---------------------|

e|-------------------------|------------------------|-------------------------|
B|-------------2--2--------|------------------------|-------------------------|
G|-------0--0--------0-----|------------0--0--------|----------------------0--|
D|----------------------2--|------2--2--------2-----|-------------2--2--------|
A|-------------------------|---------------------2--|-------2--2--------2-----|
E|--0----------------------|------------------------|--0----------------------|

e|---------------------|------------------------|------------------------|
B|---------------------|-------------8--8-------|-------------8--8-------|
G|---------------------|-------8--8--------8----|-------7--7--------7----|
D|----2---------2------|------------------------|------------------------|
A|---------2-----------|------------------------|------------------------|
E|---------------------|--8---------------------|--6---------------------|

e|------------------------|-------------------------|----------------------|
B|-------------4--4-------|----------------------4--|----------4-----------|
G|-------5--5--------5----|-------------5--5--------|----5----------5------|
D|------------------------|-------5--5--------5-----|-------5--------------|
A|------------------------|-------------------------|----------------------|
E|--4---------------------|--4----------------------|----------------------|

e|------------------------|------------------------|-------------------------|
B|-------------3--3-------|-------------3--3-------|-------------------------|
G|-------3--3--------3----|-------2--2--------2----|-------------------------|
D|------------------------|------------------------|-------0-----0-----0-----|
A|------------------------|------------------------|----4-----4-----4-----4--|
E|--3---------------------|--1---------------------|-------------------------|

e|-----------------------|--------------------------|----------------------|
B|-----------------------|--------------------------|----------------------|
G|-----------------------|--------------------------|----------------------|
D|--0--------------------|--0-----0-----0-----0-----|--0-------------------|
A|-----4----2----0----4--|-----4-----4-----4-----4--|-----4----2----0------|
E|-----------------------|--------------------------|----------------------|

e|------------------------|------------------------|------------------------|
B|-------------8--8-------|-------------8--8-------|-------------4--4-------|
G|-------8--8--------8----|-------7--7--------7----|-------5--5--------5----|
D|------------------------|------------------------|------------------------|
A|------------------------|------------------------|------------------------|
E|--8---------------------|--6---------------------|--4---------------------|

e|----------------------3--|---------------------|------------------------|
B|-------------------------|----4---------4------|-------------3--3-------|
G|-------------5--5--------|---------------------|-------3--3--------3----|
D|-------5--5--------5-----|---------5-----------|------------------------|
A|-------------------------|---------------------|------------------------|
E|--4----------------------|---------------------|--3---------------------|

e|------------------------|----------------------0--|---------------------|
B|-------------3--3-------|-------------2--2--------|----3----2-----------|
G|-------2--2--------2----|-------0--0--------0-----|--------------0------|
D|------------------------|-------------------------|---------------------|
A|------------------------|-------------------------|---------------------|
E|--1---------------------|--0----------------------|---------------------|

e|--------------------|---------------------|--------6----------------|
B|--------------------|---------------------|--------------8--8----8--|
G|----------0---------|---------------------|-----8-----8-------------|
D|-----------------2--|----0----------------|-------------------------|
A|--------------------|---------4-----------|-------------------------|
E|--------------------|--------------0------|--8----------------------|

e|--------6--6------------|-----------4----3-----4--|----3-----4----3--------|
B|----------------8--8----|--------4----------------|---------------------4--|
G|-----7------------------|-----5-------------5-----|-------5----------5-----|
D|------------------------|-------------------------|------------------------|
A|------------------------|-------------------------|------------------------|
E|--6---------------------|--4----------------------|------------------------|

e|-----------4----3--------|-----------------------|-----------------------|
B|--------4-------------4--|-------------3---------|-------------3---------|
G|-----5-------------5-----|-------3--3-----3------|-------2--2-----2------|
D|-------------------------|-----------------------|-----------------------|
A|-------------------------|-----------------------|-----------------------|
E|--4----------------------|--3--------------------|--1--------------------|

e|--------------------------|-----------------------|-----------------------|
B|--------------0--0--------|-----------------------|-----------------------|
G|--------0--0--------0--0--|--0-------0---------0--|-----------0-----------|
D|-----2--------------------|-------2-------2-------|--------2-------2------|
A|--------------------------|-----------------------|-----------------------|
E|--0-----------------------|-----------------------|--0--0-----------------|

e|----------------------|--------------------------------|
B|----------------------|-----------------1--------------|
G|----------0-----------|------------2---------2---------|
D|-----------------2----|-------2-------------------2----|
A|-----2----------------|--0-----------------------------|
E|--0-------------------|--------------------------------|

e|--------------------------------|---------------------------0----|
B|-----------------2--------------|-----------------2----3---------|
G|------------2---------2---------|------------2-------------------|
D|-------2-------------------2----|-------2------------------------|
A|--------------------------------|--------------------------------|
E|--3-----------------------------|--3-----------------------------|

e|-----------------1--------------|-----------------2--------------|
B|------------3---------3---------|------------3---------3---------|
G|-------2-------------------2----|-------2-------------------2----|
D|--0-----------------------------|--------------------------------|
A|--------------------------------|--3-----------------------------|
E|--------------------------------|--------------------------------|

e|----------------------0----2----|--3------3----3-----3--|
B|------------3----3--------------|--3--------------------|
G|-------2------------------------|--0--------------------|
D|--------------------------------|--0--------------1-----|
A|--3-----------------------------|-----------------------|
E|--------------------------------|--3--------------------|

e|---------3-----3-----3--|----------3----3-----3--|----------3-------------|
B|------------------------|------------------------|----------------3-------|
G|------------------------|-------3----------------|-------3----------------|
D|--0---------------0-----|--0---------------1-----|--0----------------0----|
A|------------3-----------|------------------------|-------------3----------|
E|------------------------|------------------------|------------------------|

e|-----------------------|-----------------------|------------------------|
B|----------3---------0--|---------2----0--------|----------3-------------|
G|-------0-------0----0--|----0---------------0--|-------0--0----0-----0--|
D|----------2------------|---------2----2--2-----|----2-------------2-----|
A|-----------------------|-----------------------|------------------------|
E|--0--------------------|-----------------------|------------------------|

e|-------------------|------------------||
B|--0----------------|------------------||
G|-------------------|------------------||
D|-------------------|------------------||
A|-------------------|------------------||
E|-------------------|------------------||


Guitar 2 (Rhythm)Thom Yorke

[part1]
e|---------3----3----3--|---------3----3----3--|---------3----3----3---------|
B||---------4----4----4--|---------3----3----3--|---------4----4----4--------|
G||---------5----5----5--|---------3----3----3--|---------5----5----5--------|
D||----------------------|----------------------|----------------------------|
A||--3-------------------|--1-------------------|----------------------------|
E||----------------------|----------------------|--4-------------------------|

e|---------3----3----3--|---------3----------|----------------------|
B|---------4----4----4--|---------4----------|---------3----3----3--|
G|---------5----5----5--|---------5----------|---------3----3----3--|
D|----------------------|--------------------|----------------------|
A|----------------------|--------------------|----------------------|
E|--4-------------------|--4-----------------|--3-------------------|

e|----------------------|----------------------|--------------------|
B|---------3----3----3--|---------3----2----2--|--------3----3------|
G|---------2----2----2--|---------2----0----0--|--------0----0------|
D|----------------------|----------------------|--------------------|
A|----------------------|----------------------|--------------------|
E|--1-------------------|--0-------------------|--------------------|

e|----------------------|---------------------|
B|---------3----3----3--|--------3----3----3--|
G|---------0----0----0--|--------0----0----0--|
D|----------------------|---------------------|
A|----------------------|---------------------|
E|--0-------------------|---------------------|

[part 2]
e|--------------------|---------------------|----------------------|
B|------------3----3--|-------------3----2--|------2------2--2--2--|
G|------------0----0--|------0------2----0--|------0------0--0--0--|
D|--------------------|------2-----------2--|------2------2--2--2--|
A|--------------------|------2--------------|----------------------|
E|--------------------|---------------------|----------------------|

e|----------------------|----------------------|----------------------|
B|-------1------1----1--|-------2------2----2--|-------2------2----2--|
G|-------2------2----2--|-------2------2----2--|-------2------2----2--|
D|--2----2------2----2--|-------2------2----2--|-------2------2----2--|
A|--0-------------------|----------------------|----------------------|
E|----------------------|--3----3------3----3--|--3----3------3----3--|

e|-------1------1----1--|-------2------2----2--|-------2------2----2--|
B|-------3------3----3--|-------3------3----3--|-------3------3----3--|
G|-------2------2----2--|-------2------2----2--|-------2------2----2--|
D|--0----0------0----0--|----------------------|----------------------|
A|----------------------|--3----3------3----3--|--3----3------3----3--|
E|----------------------|----------------------|----------------------|

e|-------3------3--3----|-------3------3--3----|-------3------3--3----|
B|-------3------3--3----|-------3------3--3----|-------3------3--3----|
G|-------0------0--0----|-------0------0--0----|-------0------0--0----|
D|--0----0------0--0----|--0----0------0--0----|-------0------0--0----|
A|--1----1------1--1----|--1----1------1--1----|----------------------|
E|----------------------|----------------------|--3----3------3--3----|

e|-------3------3--3----|----------------------|---------------------|
B|-------3------3--3----|-------2------2----2--|------2------2----2--|
G|-------0------0--0----|-------0------0----0--|------0------0----0--|
D|-------0------0--0----|-------2------2----2--|------2------2----2--|
A|----------------------|----------------------|---------------------|
E|--3----3------3--3----|--0-------------------|---------------------|

e|---------------------|---------------------|
B|------3------3----3--|------3------3----3--|
G|------0------0----0--|------0------0----0--|
D|------2------2----2--|------2------2----2--|
A|---------------------|---------------------|
E|---------------------|---------------------|

Guitar 3 ed o brien

e|-----3--------3--3-------|-----------6-----------|---------------------|
B|--------4--4--------4----|----------------8------|--9------8-----------|
G|--5----------------------|--7/-8--7--------------|----------------8----|
D|-------------------------|-----------------------|---------------------|
A|-------------------------|-----------------------|---------------------|
E|-------------------------|-----------------------|---------------------|

e|----------------------|-----------------------|--------------------|
B|----9------8-------9--|----8-----8----8--8----|----------8--8------|
G|----------------8-----|-------8---------------|--------------------|
D|----------------------|-----------------------|--------------------|
A|----------------------|-----------------------|--------------------|
E|----------------------|-----------------------|--------------------|

e|------------------|------------------------|-----------3-----------|
B|------------------|------3--2--3--2--3--2--|--3--2--3-------3------|
G|------------------|------------------------|-----------------------|
D|------------------|------------------------|-----------------------|
A|------------------|------------------------|-----------------------|
E|------------------|------------------------|-----------------------|

e|------------------------|-----------3-----------|-----3--------3--3-------|
B|------3--2--3--2--3--2--|--3--2--3-------3------|--------4--4--------4----|
G|------------------------|-----------------------|--5----------------------|
D|------------------------|-----------------------|-------------------------|
A|------------------------|-----------------------|-------------------------|
E|------------------------|-----------------------|-------------------------|

e|-----------6-----------|----------------------|------------------------|
B|----------------8------|----9------8-------9--|--8-----8------9--8-----|
G|--7/-8--7--------------|----------------8-----|-----8---------------8--|
D|-----------------------|----------------------|------------------------|
A|-----------------------|----------------------|------------------------|
E|-----------------------|----------------------|------------------------|

e|-----------------------|--------------------|-------------------|
B|--8------9--8-----8----|----------8----8----|------------6------|
G|---------------8-------|--------------------|-------------------|
D|-----------------------|--------------------|-------------------|
A|-----------------------|--------------------|-------------------|
E|-----------------------|--------------------|-------------------|

e|------------------------|-----------3-----------|------------------------|
B|------3--2--3--2--3--2--|--3--2--3-------3------|------3--2--3--2--3--2--|
G|------------------------|-----------------------|------------------------|
D|------------------------|-----------------------|------------------------|
A|------------------------|-----------------------|------------------------|
E|------------------------|-----------------------|------------------------|

e|-----------3-----------|-----3--------3--3-------|-----------6-----------|
B|--3--2--3-------3------|--------4--4--------4----|----------------8------|
G|-----------------------|--5----------------------|--7/-8--7--------------|
D|-----------------------|-------------------------|-----------------------|
A|-----------------------|-------------------------|-----------------------|
E|-----------------------|-------------------------|-----------------------|

e|---------------------|----------------------|-----------------------|
B|--9------8-----------|----9------8-------9--|----8-----8----8--8----|
G|----------------8----|----------------8-----|-------8---------------|
D|---------------------|----------------------|-----------------------|
A|---------------------|----------------------|-----------------------|
E|---------------------|----------------------|-----------------------|

e|--------------------|------------------|------------------------|
B|----------8--8------|------------------|------3--2--3--2--3--2--|
G|--------------------|------------------|------------------------|
D|--------------------|------------------|------------------------|
A|--------------------|------------------|------------------------|
E|--------------------|------------------|------------------------|

e|--------0---------0----|------------------------|--------0---------0----|
B|--3--2---------2-------|------3--2--3--2--3--2--|--3--2---------2-------|
G|-----------------------|------------------------|-----------------------|
D|-----------------------|------------------------|-----------------------|
A|-----------------------|------------------------|-----------------------|
E|-----------------------|------------------------|-----------------------|

e|-----3--------3--3-------|------------------------|-------------------------|
B|--------4--4--------4----|--------8--8------------|-----------4----4-----4--|
G|--5----------------------|----------------7--7----|--------5----------------|
D|-------------------------|-----8------------------|-----6-------------6-----|
A|-------------------------|------------------------|-------------------------|
E|-------------------------|--6---------------------|--4----------------------|

e|------------------------|-----------------------|-----------3----------5--|
B|--4-----4------4-----4--|-----------------------|--------3----------------|
G|-----5------------5-----|--5---------5-----5----|-----0----------3--------|
D|------------------------|---------6-----6-------|-------------------0-----|
A|------------------------|-----------------------|-------------------------|
E|------------------------|-----------------------|--3----------------------|

e|----3---------3------|------------------------|----------0------------|
B|---------3-----------|------3--2--3--2--3--2--|--3--2---------3----2--|
G|---------------------|------------------------|-----------------------|
D|---------------------|------------------------|-----------------------|
A|---------------------|------------------------|-----------------------|
E|---------------------|------------------------|-----------------------|

e|-------------------------|----------------------|------------------|
B|----2--3--2--3--2--3--2--|--3--2----0-----------|------------------|
G|-------------------------|---------------0------|------------------|
D|-------------------------|----------------------|------------------|
A|-------------------------|----------------------|------------------|
E|-------------------------|----------------------|------------------|



************************************

| / Slide up

************************************
Song info
Knives Out
Radiohead
2001
  • Electronic
  • Rock
  • Alternative Rock
  • Experimental
  • Pop Rock
Alternative tracks
Similar songs
Broken Wings - Mr. Mister
Gloria - U2
Let Me Go - 3 Doors Down
Disconnect - Rollins Band
Going Inside - John Frusciante

Hi! Hope you enjoy backing track experience.
If you want to help us in the development of the project, feel free to donate!