Since Youve Been Gone - Rainbow
00:00 / 00:00
Tabs and lyrics
Tunning: Standard (E A D G B e)
Rainbow

Since You've Been Gone

Tabbed by Blaze

LEGEND:
--BU--
12--14
Pick the first note then bend up to the pitch of the second note

---S--
12--14
slide

--H--
-4-5-
hammer-on

--P--
-4-5-
pull-off


[Intro]
e|-----3--3--3-------------------------------------------------3--3--3-----------------------|
B|-----3--3--3-------------------------------------------------3--3--3-----------------------|
G|-----0--0--0----------7--7-------9--9--9-------5--5----------0--0--0--------7-------9------|
D|-----5--5--5----------7--7-------9--9--9-------5--5----------5--5--5--------7-------7------|
A|-----5--5--5----------5--5-------7--7--7-------3--3----------5--5--5--------5-------7------|
E|-------------------------------------------------------------------------------------------|

e|------------------------------------3--3--3------------------------------------------------|
B|------------------------------------3--3--3------------------------------------------------|
G|-----5-------5--5----7---7----------0--0--0--------7--7--------9--9--9----------5--5-------|
D|-----5-------5--5----7---7----------5--5--5--------7--7--------9--9--9----------5--5-------|
A|-----3-------3--3----5---5----------5--5--5--------5--5--------7--7--7----------3--3-------|
E|-------------------------------------------------------------------------------------------|

e|-----3--3--3-------------------------------------------------------------------------------|
B|-----3--3--3--------------------------------S----------------------------------------------|
G|-----0--0--0-------7-----9-----5------5------------7---------------------------------------|
D|-----5--5--5-------7-----9-----5------5------------7---------------------------------------|
A|-----5--5--5-------5-----7-----3------3------------5---------------------------------------|
E|-------------------------------------------------------------------------------------------|
AH__________________________________

[Verse]
e|-------------------------------------2--------------------------------------------0--------|
B|-----------------------------------------------------------0------------------3------------|
G|---------------0-----------------2---------------------0------------------2----------------|
D|-----------0-----------------0----------------------------------------0--------------------|
A|-------2-------------------------------------------2---------------------------------------|
E|---3---------------------2---------------------0-------------------------------------------|
1. I get the same_ old dreams same time ev' - ry night,__
2. So in the night_ I stand be - neath the back street light

e|---------------------------------------------------------------------------0---------------|
B|---------------1---------------------0---------------------------------3-------------------|
G|-----------0---------------------0---------------------2---0-------2-----------------------|
D|-------2---------------------0---------------------2-----------0---------------------------|
A|---3---------------------2---------------------0-------------------------------------------|
E|-------------------------------------------------------------------------------------------|
fall__ to the ground and i wake up
I______ read the words that you sent me

e|-------------------3------------------------2----------------------------------------------|
B|-------------------------------------------------------------------------------------3-----|
G|--------------0-----------------------2------------------------0----------------2----------|
D|---------0---------------------0------------------------2----------------0-----------------|
A|-------------------------------------------------------------------------------------------|
E|---3-----------------------2----------------------0----------------------------------------|
So I get out__ of bed,__ put on___ my shoes__ an' in my head
I could take the afternoon but night - time comes a - round too soon

e|----------------------------------------------------------------------0--------------------|
B|------------------1----------------------0----------------------------------------------3--|
G|-------------0--------------------------------------------------2-----------------2--------|
D|--------2-----------------------0-------------------------2------------------0-------------|
A|---3-----------------------2------------------------0--------------------------------------|
E|-------------------------------------------------------------------------------------------|
thoughts fly back_______ to the breack up.
you can't know_______ what you mean to me
[Bridge]
e|-------------------------------------------------------------------------------------------|
B|-------------------------------------------------------------------------------------------|
G|---8---------------------------------------------------------------------------------------|
D|---8------------------------------------------------------------------------------7--------|
A|---6-----------------------------------------------------------------------8-------------8-|
E|--------------------------------------------------------------------8----------------------|
These four walls are clo - sin' in,___
Your poison letter, your te - le - gram__

e|-------------------------------------------------------------------------------------------|
B|-------------------------------------------------------------------------------------------|
G|---8---------------------------------------------------------------------------------------|
D|---8---------------------------------------------------------------------------------------|
A|---6----------------------------------------------3------4------5--------------------------|
E|---------------------------8-----6-----5---------------------------------------------------|
look at the fix you've put_____ me_____ in._____{
Just goes to show you dont give____ a______ damn.___{

[Chorus]
e|-----3--3--3-------------------------------------------------3--3--3-----------------------|
B|-----3--3--3-------------------------------------------------3--3--3-----------------------|
G|-----0--0--0----------7--7-------9--9--9-------5--5----------0--0--0--------7-------9------|
D|-----5--5--5----------7--7-------9--9--9-------5--5----------5--5--5--------7-------7------|
A|-----5--5--5----------5--5-------7--7--7-------3--3----------5--5--5--------5-------7------|
E|-------------------------------------------------------------------------------------------|
since youve been gone,__ since youve been gone_ Im out of my head cant


e|------------------------------------3--3--3------------------------------------------------|
B|------------------------------------3--3--3------------------------------------------------|
G|-----5-------5--5----7---7----------0--0--0--------7--7--------9--9--9----------5--5-------|
D|-----5-------5--5----7---7----------5--5--5--------7--7--------9--9--9----------5--5-------|
A|-----3-------3--3----5---5----------5--5--5--------5--5--------7--7--7----------3--3-------|
E|-------------------------------------------------------------------------------------------|
take it. could i be wrong,__ but since youve been gone__


e|-----3--3--3------------------------------------------------3--3--3------------------------|
B|-----3--3--3------------------------------------------------3--3--3------------------------|
G|-----0--0--0-------7-----9-----5------5--5------7--7--------0--0--0---------7--7-----------|
D|-----5--5--5-------7-----9-----5------5--5------7--7--------5--5--5---------7--7-----------|
A|-----5--5--5-------5-----7-----3------3--3------5--5--------5--5--5---------5--5-----------|
E|-------------------------------------------------------------------------------------------|
youve cast a spell so break it.__ Oh,___________


e|---------------------------------3--3--3---------------------------------------------------|
B|---------------------------------3--3--3---------------------------------------------------|
G|---9---9---9---------5--5--------0--0--0-------7------9------5-----5---5------7--7---------|
D|---9---9---9---------5--5--------5--5--5-------7------9------5-----5---5------7--7---------|
A|---7---7---7---------3--3--------5--5--5-------5------7------3-----3---3------5--5---------|
E|-------------------------------------------------------------------------------------------|
Oh,_______________ Oh,___________ since youve been gone.


[GUITAR SOLO]
e|-------------------------------------------------------------------------------------------|
B|------S-----------------------------BU---------H-P------------------------H-P--------------|
G|----2---4---------5----------7-----7--9---7---5-7-5------4-------4---5---4-5-4-------------|
D|---------------5---------5----------------------------------------------------------7------|
A|-------------------------------------------------------------------------------------------|
E|-------------------------------------------------------------------------------------------|

e|-------------BU----------------------------------------------------------------------------|
B|------------6--8---------------------------------------------12----------13----------------|
G|--------------------------------------------------------------------12------------12-------|
D|----5--------------------------------------------------------------------------------------|
A|-------------------------------------------------------------------------------------------|
E|-------------------------------------------------------------------------------------------|
If____ you will___ come


e|----------------------BU----------------------H--P----------------------------H--P---------|
B|----15--------------15--17--------15--------13-15-14-----12------12----13---12-13-12-------|
G|-----------------------------------------------------------------------------------------14|
D|-------------------------------------------------------------------------------------------|
A|-------------------------------------------------------------------------------------------|
E|-------------------------------------------------------------------------------------------|
back, ba - by you know__ you'll ne - ver do

BU
e|----------13-15----------------------------------------------------------------------------|
B|-------------------------------------------------------------------------------------------|
G|----12-------------------------------------------------------------------------------------|
D|-------------------------------------------------------------------------------------------|
A|------------------------------------------------------------5---5---5-------5---5----------|
E|-------------------------------------------------------------------------------------------|
wrong.______________________________ Uh!


[Chorus]
e|-------------------------------------------------------------------------------------------|
B|---10----10----10--------------------------------------------------------------------------|
G|----9-----9-----9-------------9---9-------11-----11----11----------------7-----7-----------|
D|----7-----7-----7-------------9---9-------11-----11----11----------------7-----7-----------|
A|----7-----7-----7-------------7---7--------9------9-----9----------------5-----5-----------|
E|-------------------------------------------------------------------------------------------|
Since you've been gone,____ Since you've been gone___ im


e|-------------------------------------------------------------------------------------------|
B|--10-10-10-------------------------------------------------------10--10--10----------------|
G|---9--9--9---------------9-------11------7-----7--7---9--9--------9---9---9--------9--9----|
D|---7--7--9---------------9-------11------7-----7--7---7--7--------7---7---7--------9--9----|
A|---7--7--7---------------7--------9------5-----5--5---7--7--------7---7---7--------7--7----|
E|-------------------------------------------------------------------------------------------|
out of my head, can't take it.___ could i be wrong_ but

e|-------------------------------------------------------------------------------------------|
B|------------------------------------10-10-10-----------------------------------------------|
G|---11---11-----11------------7--7----9--9--9-------------9-----11-----7-----7--7--9--9-----|
D|---11---11-----11------------7--7----7--7--7-------------9-----11-----7-----7--7--9--9-----|
A|----9----9------9------------5--5----7--7--7-------------7------9-----5-----5--5--7--7-----|
E|-------------------------------------------------------------------------------------------|
Since you've been_ gone__ you cast a spell, so break it.____


e|-------------------------------------------------------------------------------------------|
B|---10--10--10-------------------------------------------------10--10--10-------------------|
G|----9---9---9----------9---9------11---11---11------10-10------9---9---9---------9---9-----|
D|----7---7---7----------9---9------11---11---11------10-10------7---7---7---------9---9-----|
A|----7---7---7----------7---7-------9----9----9-------8--8------7---7---7---------7---7-----|
E|-------------------------------------------------------------------------------------------|
Whoa,_____________ Whoa,____________ Whoa,____________


e|-------------------------------------------------------------------------------------------|
B|-----------------------------------10--10--10----------------------------------------------|
G|---11--11--11-------10--10----------9---9---9---------9-----9-----2------------------------|
D|---11--11--11-------10--10----------7---7---7---------9-----9-----2------------------------|
A|----9---9---9--------8---8----------7---7---7---------7-----7-----0------------------------|
E|-------------------------------------------------------------------------------------------|
Whoa,____________ Ev - er since you've been gone.______________


[OUTRO SOLO] w/bar~~~~~~~~~~~~
e|------------BD-----------------------------------------------------------------------------|
B|----------10--8----BU-----5-----------------BU--------5----BU-----------BD---5--BD-P-P-----|
G|------------------7--9--------7----6-------6--4----2-----6---4----2---4---6----5--4-2--0--2|
D|-------------------------------------------------------------------------------------------|
A|-------------------------------------------------------------------------------------------|
E|-------------------------------------------------------------------------------------------|

e|------------------------------------------------------------------------5----3-----------0-|
B|---BU-----5---5---BU--BU--P--------------P-P----------BD-BD-BD-BD-BD-------------5---------|
G|--4--6-----------4--6----4-2------2-----5-2-0-----2--4--6--4--6--4--6----------------3-----|
D|-------------------------------4----4----------4-------------------------------------------|
A|-------------------------------------------------------------------------------------------|
E|-------------------------------------------------------------------------------------------|

e|-----------------------------------------H-P-----H-P--------H----5---H---5--H---7-----BD---|
B|-----H-P-P-----------S------------------5-7-5---5-7-5------5-7------5-7----7-9-------8--7-5|
G|----2-4-2-0-------2-4-6---4------7---6------------------7----------------------------------|
D|--------------4----------------------------------------------------------------------------|
A|-----------------------------7-------------------------------------------------------------|
E|-------------------------------------------------------------------------------------------|
P
e|---10--12---10-9------------BU-----BU--------------BU--BU-----BU-12--BU----------H--P------|
B|10---------------10---10--12-14-12-14--12--10--12-12-14-12--12-14---12-14--12--10-12-10--10|
G|--------------------9------------------------------------------------------------------11--|
D|-------------------------------------------------------------------------------------------|
A|-------------------------------------------------------------------------------------------|
E|-------------------------------------------------------------------------------------------|
S
e|---H--P------10--------12---10-----BU----12--BU------------------------------9---7--9--7---|
B|-10-12-10---------S--------------12--14----12--14--(13)---12--10--\---6---7--------------10|
G|----------11----11-13----------------------------------------------------------------------|
D|-------------------------------------------------------------------------------------------|
A|-------------------------------------------------------------------------------------------|
E|-------------------------------------------------------------------------------------------|


Everything but the outro solo is relativly simple, but if you listen to the record while your playing
you will eventualy pick it up... :-)
have fun


************************************

| ~ Vibrato
| (n) Ghost note
| \ Slide down

************************************
Song info
Since Youve Been Gone
Rainbow
2001
  • Pop
  • Rock
  • Hard Rock
Alternative tracks
Similar songs
Rocket Queen - Guns N' Roses
Black Ice - AC/DC
Born to be wild - Steppenwolf
Better - Guns N' Roses
Fuel - Metallica

Hi! Hope you enjoy backing track experience.
If you want to help us in the development of the project, feel free to donate!