Feuer Frei - Rammstein
00:00 / 00:00
Tabs and lyrics
Tunning: Standard (E A D G B e)
After the kick ass keyboard intro:

When Till starts to sing:

Intro:

-----------------------------------------------------
-----------------------------------------------------
-----------------------------------------------------
--9-10-9-10-9-10-9-10-12-12-12-----------------------
--9-10-9-10-9-10-9-10-12-12-12-----------------------
--9-10-9-10-9-10-9-10-12-12-12-----------------------
Do this until he says "Ein hesser schrei... FEUER FREI!"
This is sounds like it MIGHT have SOME distortion.

Main Riff:

-----------------------------------------------------
-----------------------------------------------------
-----------------------------------------------------
-5-6-5-6-5-6-5-6-8-8-8-------------------------------
-5-6-5-6-5-6-5-6-8-8-8-------------------------------
-5-6-5-6-5-6-5-6-8-8-8-------------------------------
Again, when he says "Ein hesser schrei... Feuer Frei!"
and goes into the whole "BANG BANG" thing, start playing.

The Inbetween:

-----------------------------------------------------
-----------------------------------------------------
-----------------------------------------------------
-5-5-5-8---5-5-5-8---5-5-5-8-------------------------
-5-5-5-8---5-5-5-8---5-5-5-8-------------------------
-5-5-5-8---5-5-5-8---5-5-5-8-------------------------
This is just that between guitar part before they start
saying Feuer Frei! If you listen to the song, you'll get
what I mean.

At the end of the song before the final "Bang Bang", not too
sure how to play that part. I don't think it's too hard though.
This is pretty much it. The video for this kicked ass. Have fun
you jerky ass bastards.

::Feuer Engel::
Tunning: Standard (E A D G B e)
-------------------------------------------------------------------------------
FEUER FREI - Rammstein
-------------------------------------------------------------------------------
Tabbed by: Matt Richards
Email: matt2210@hotmail.com

Tuning: Dropped D

intro:
e|-----|
B|-----|
G|-----|
D|--6--|
A|--6--|
D|--6--| let ring

e|-----------------------|
B|-----------------------|
G|-----------------------|
D|----5h6-5h6-5h6-5h6-8--|
A|----5h6-5h6-5h6-5h6-8--|
D|----5h6-5h6-5h6-5h6-8--| x8

verses:

e|---------|
B|---------|
G|---------|
D|--555-8--|
A|--555-8--|
E|--555-8--| x3 near end of the verse

chorus:
e|-----------------------|
B|-----------------------|
G|-----------------------|
D|----5h6-5h6-5h6-5h6-8--|
A|----5h6-5h6-5h6-5h6-8--|
D|----5h6-5h6-5h6-5h6-8--| x2

e|----------|
B|----------|
G|----------|
D|-12-11-8--|
A|-12-11-8--|
D|-12-11-8--|

e|-----------------------|
B|-----------------------|
G|-----------------------|
D|----5h6-5h6-5h6-5h6-8--|
A|----5h6-5h6-5h6-5h6-8--|
D|----5h6-5h6-5h6-5h6-8--| x3

e|----------|
B|----------|
G|----------|
D|-12-11-8--|
A|-12-11-8--|
D|-12-11-8--|

chorus

ending
e|----------|
B|----------|
G|----------|
D|-12-11-8--|
A|-12-11-8--|
D|-12-11-8--| x3

| / slide up
| \ slide down
| h hammer-on
| p pull-off
| ~ vibrato
| + harmonic
| x Mute note
===============================================================================
Tunning: Standard (E A D G B e)
This is Feuer Frei (Open Fire / Fire At Will) by Rammstein off the album Mutter (Mother)
I don't know what the other fools were listening too when writing their tabs so I
figured I'd tab out the correct version.

Tunned to Dropped D low to high D-A-D-G-B-E


e|---------------------------|
B|---------------------------|
G|--------let ring-----------|
D|-5-------------------------|
A|-5-------------------------|
D|-5-------------------------|

With light Wah, slowly dipping the pedal as you repeat the riff.
Also try to slighty pinch the notes like a pinch harmonic if you know how.
e|----------------------------------|
B|----------------------------------|
G|----------------------------------|
D|----------------------------------|
A|----------------------------------|
D|-5h6p5-5h6p5-5h6p5-5h6p5-888-10---|

e|----------------------------------|
B|----------------------------------|
G|----------------------------------|
D|-5h6p5-5h6p5-5h6p5-5h6p5-888-10---|
A|-5h6p5-5h6p5-5h6p5-5h6p5-888-10---|
D|-5h6p5-5h6p5-5h6p5-5h6p5-888-10---|

[Verse]

e|-------------| |------------|
B|-------------| |------------|
G|-------------|or|---333-5----|
D|--888-10-----| |---333-5----|
A|--888-10-----| |---111-3----|
D|--888-10-----| |------------|

[Chorus]

e|---------------------------------| |------------------------|
B|---------------------------------|x3 |------------------------|
G|---------------------------------| |----77777777-6666-3333--|
D|-5h6-5-5h6-5-5h6-5-5h6-5-888-10--| |----77777777-6666-3333--|
A|-5h6-5-5h6-5-5h6-5-5h6-5-888-10--| |----55555555-4444-1111--|
D|-5h6-5-5h6-5-5h6-5-5h6-5-888-10--| |------------------------|
PM - - - -

[Interlude]
The second keyboard, tabbed out for guitar, so you not standing there looking
stupid with nothing to do.
e|-15--15-15--15-15--15--15-15--15-15--13--13-13--13--13--13-13--10--10-10--10-10-|
B|--------------------------------------------------------------------------------|
G|--------------------------------------------------------------------------------|
D|--------------------------------------------------------------------------------|
A|--------------------------------------------------------------------------------|
D|--------------------------------------------------------------------------------|

-13--13-13--13-13--15--15-15--15-15--|
-------------------------------------|
-------------------------------------|
-------------------------------------|
-------------------------------------|
-------------------------------------|

[Outro]
The chorus already does this once, but repeat it twice more
|------------------------| |----------------|
|------------------------| |----------------|
|----77777777-6666-3333--|x2 |--let-ring------|
|----77777777-6666-3333--|and then end with |-5~---------5-5-|
|----55555555-4444-1111--| |-5~---------5-5-|
|------------------------| |-5~---------5-5-|


Tada! This plays perfectly with the album version and live version so play it with
anything you want.



************************************

| x Dead note
| h Hammer-on
| p Pull-off
| ~ Vibrato

************************************
Song info
Feuer Frei
Rammstein
2001
  • Electronic
  • Rock
  • Heavy Metal
  • Industrial
Similar songs
Trilogy - Yngwie Malmsteen
Powerslave - Iron Maiden
Fuzz Universe - Paul Gilbert
The Ultimate Sin - Ozzy Osbourne

Hi! Hope you enjoy backing track experience.
If you want to help us in the development of the project, feel free to donate!