Sonne - Rammstein
00:00 / 00:00
Tabs and lyrics
Tunning: Standard (E A D G B e)
Rammsteim, Sonne
Tune to Drop D
Heavy distortion with distortion set to 100% bass and 50% treble
This tab is 100% correct

Intro:
E ---------------------------------------------------------
B ---------------------------------------------------------
G ---------------------------------------------------------
D -0-006060-0060650-006065550060650-006060-0060650-00606555
A -0-006060-0060650-006065550060650-006060-0060650-00606555
E -0-006060-0060650-006065550060650-006060-0060650-00606555


4X
E ---------------
B ---------------
F ---------------
D -0060650-006060
A -0060650-006060
E -0060650-006060

Chorous:1X
E ------------------------------------------------
B ------------------------------------------------
F 4--4--2--5--4--4--2--5-----4-----------4--------
D 4--2--0--5--4--2--0--5--2--4--5--4--2--4--5--4--
A 2--2--0--3--2--2--0--3--2--2--5--4--2--2--5--4--
E ---2--0--------2--0-----2-----5--4--2-----5--4--

E -------------------------------
B -------------------------------
F -------------------------------
D -0060650-006060-0060650-00606555
A -0060650-006060-0060650-00606555
E -0060650-006060-0060650-00606555


E ---------------
B ---------------
F ---------------
D -0060650-006060
A -0060650-006060
E -0060650-006060


E ---------------
B ---------------
F ---------------
D -0060650-006060
A -0060650-006060
E -0060650-006060

Chorous 2X (second time woman's voice comes in)

Woman's voice, drums, and bass

Chorous 2X

~my name is josh. i live in ky and ive been playing for about two years and
i am positive that his is how it's done
e mail me Meegs0@aol.com
Tunning: Drop D (D A D G B E)
Artist: Rammstein
Song: Sonne
Tabbes by: Peter (Pétur)

This is how it's done. It's 100% CORRECT!
Cool song!

(Drop D tuning)

Song played w/dist


[Main Riff]

E|----------------------------------------|
B|----------------------------------------|
G|----------------------------------------|
D|-0----6-0-6-5-0--------0----6-0-6-0-----|
A|-0----6-0-6-5-0--------0----6-0-6-0-----|
D|-0----6-0-6-5-0--------0----6-0-6-0-----|

E|----------------------------------------|
B|----------------------------------------|
G|----------------------------------------|
D|-0----6-0-6-5-0--------0----6-0-6-5-5-5-|
A|-0----6-0-6-5-0--------0----6-0-6-5-5-5-|
D|-0----6-0-6-5-0--------0----6-0-6-5-5-5-|


[Riff 2]

E|----------------------------------------|
B|----------------------------------------|
G|----------------------------------------|
D|-0----6-0-6-5-0--------0----6-0-6-0-----|
A|-0----6-0-6-5-0--------0----6-0-6-0-----|
D|-0----6-0-6-5-0--------0----6-0-6-0-----|


[Chorus]

E|----------------------------------------|
B|----------------------------------------|
G|-4----4------------------------5----5---|
D|-4----4----2----2----0----0----5----5---|
A|-2----2----2----2----0----0----3----3---|
D|-----------2----2----0----0-------------|
Repeat 2 times

E|----------------------------------------|
B|----------------------------------------|
G|-----------4----4-----------------------|
D|-2----2----4----4----5----5----4----4---|
A|-2----2----2----2----5----5----4----4---|
D|-2----2--------------5----5----4----4---|
Repeat 2 times



Here you can see the riffs in a right order,
so you will get the song correct.


Main Riff____x2,
Riff 2,
Riff 2,
Riff 2,
Chorus,
Main Riff,
Riff 2,
Riff 2,
Chorus____x2,
Chorus____x2.
Tunning: Standard (E A D G B e)
Artist: RAMMS+EIN
Album: MUTTER
Song: Sonne
Tab by: TrinityMasaki13
Trinitymasaki13@aol.com

This is my second tab EVER so go easy on me. My only other one is
Rammstein's song Seemann.ver2. I spent about 10 mins. Learning this
song and 2 hours tabbing it! I was looking on the site and the
other versions are okay but not right. The INRTO is Keyboard but
I can't wait for the guitar so I tabbed it for guitar. As for the
song I use a Hyper Metal Dist Pedal. As for the Chorus I use a little dist.
The OUTRO (Woman singing) I use a DOD Chorus Pedal. This is a very
simple song once you sit down and really listen. If you have any
questions or would like to request a RAMMS+EIN song to be
tabbed e-mail me! Thanks a lot! ENJOY!

^ = BEND
/ = SLIDE
PM = PLAM MUTED

INTRO PM
e|-----------------------------------------------------------------|
B|-----------------------------------------------------------------|
G|-----------------------------------------------------------------|
D|-----------------------------------------------------------------|
A|-----------------------------------------------------------------|
E|-006000600060006000600060006000600060006000600060006000600060006-|
Eins, zwei, drei, vier, fünf, sechs, sieben, acht
e|-----------------------------------------------------------------|
B|-----------------------------------------------------------------|
G|-----------------------------------------------------------------|
D|-----------------------------------------------------------------|
A|-----------------------------------------------------------------|
E|-000600060006^---------------------------------------------------|
Neun, aus (All of intro is Plam Muted)


Main Riff
e|------------------------------------|
B|------------------------------------|
G|------------------------------------|
D|-0-0-6-0-6-5-0--0-0-6-0-6-5---------|
A|-0-0-6-0-6-5-0--0-0-6-0-6-5---------|
E|-0-0-6-0-6-5-0--0-0-6-0-6-5---------|

e|------------------------------------|
B|------------------------------------|
G|------------------------------------|
D|-0-0-6-0-6-5-0--0-0-6-0-5-5-5-5-----|
A|-0-0-6-0-6-5-0--0-0-6-0-5-5-5-5-----|
E|-0-0-6-0-6-5-0--0-0-6-0-5-5-5-5-----|


Chorus (Listen to song for timing)
e|------------------------------|
B|------------------------------|
G|------------------------------|
D|-4----4----4----4-------------|
A|-4----4----4----4-------------|
E|-2----2----2----2-------------|
Eins Hier kommt die Sonne
e|------------------------------|
B|------------------------------|
G|------------------------------|
D|-9----9----9----9-------------|
A|-9----9----9----9-------------|
E|-7----7----7----7-------------|
Zwei Hier kommt die Sonne
e|------------------------------|
B|------------------------------|
G|------------------------------|
D|-7----7----7----7-------------|
A|-7----7----7----7-------------|
E|-5----5----5----5-------------|
Drei Sie ist der hellste Stern von allen
e|------------------------------|
B|------------------------------|
G|------------------------------|
D|-5----5----5----5-------------|
A|-5----5----5----5-------------|
E|-3----3----3----3-------------|
Vier Hier kommt die Sonne
e|------------------------------|
B|------------------------------|
G|-9----9----9----9-------------|
D|-9----9----9----9-------------|
A|-7----7----7----7-------------|
E|------------------------------|
Fünf Hier kommt die Sonne
e|------------------------------|
B|------------------------------|
G|------------------------------|
D|-9----9----9----9-------------|
A|-9----9----9----9-------------|
E|-9----9----9----9-------------|
Sechs Hier kommt die sonne
e|------------------------------|
B|------------------------------|
G|------------------------------|
D|-5----5----5----5-------------|
A|-5----5----5----5-------------|
E|-5----5----5----5-------------|
Sieben Sie ist der hellste Stern von allen

e|------------------------------|
B|------------------------------|
G|------------------------------|
D|-4----4----4----4-------------|
A|-4----4----4----4-------------|
E|-4----4----4----4-------------|
Acht, Neun Hier kommt die Sonne
(Listen to song for the timing to strum the chords)

OUtro/Back ground of chorus (Woman singing)
E------------------------------------------
B----12-14-15--19--12-------12-14-15-17-14-
G-11---------------------11----------------
D------------------------------------------
A------------------------------------------
E------------------------------------------
(2X)Play 2 times

E-------------------------------
B----------------14/15-15-15/14-
G-11^--12^-11^------------------
D-------------------------------
A-------------------------------
E-------------------------------
(2X)Play 2 times



LYRICS/SONG GUIDE:

(INTRO)
Eins, zwei, drei, vier, fünf, sechs, sieben, acht, neun, aus

(Main Riff)
Alle warten auf das Licht
fürchtet euch fürchtet euch nicht
die Sonne scheint mir aus den Augen
sie wird heut Nacht nicht untergehen
und die Welt zählt laut bis zehn

(Chorus)
Eins
Hier kommt die Sonne
Zwei
Hier kommt die Sonne
Drei
Sie ist der hellste Stern von allen
Vier
Hier kommt die Sonne

(Main Riff)
Die Sonne scheint mir aus den Händen
kann verbrennen, kann euch blenden
wenn sie aus den Fäusten bricht
legt sich heiss auf das Gesicht
sie wird heut Nacht nicht untergehen
und die Welt zählt laut bis zehn

Chorus)
Eins
Hier kommt die Sonne
Zwei
Hier kommt die Sonne
Drei
Sie ist der hellste Stern von allen
Vier
Hier kommt die Sonne

(Chorus/Outro)
Fünf
Hier kommt die Sonne
Sechs
Hier kommt die Sonne
Sieben
Sie ist der hellste Stern von allen
Acht, neun
Hier kommt die Sonne

(NO GUITAR! ONLY DRUMS ANS KEYBOARD)
Die Sonne scheint mir aus den Händen
kann verbrennen, kann dich blenden
wenn sie aus den Fäusten bricht
legt sich heiss auf dein Gesicht
legt sich schmerzend auf die Brust
das Gleichgewicht wird zum Verlust
lässt dich hart zu Boden gehen
und die Welt zählt laut bis zehn

(Chorus/Outro)
Eins
Hier kommt die Sonne
Zwei
Hier kommt die Sonne
Drei
Sie ist der hellste Stern von allen
Vier
Und wird nie vom Himmel fallen
Fünf
Hier kommt die Sonne
Sechs
Hier kommt die Sonne
Sieben
Sie ist der hellste Stern von allen
Acht , neun
Hier kommt die Sonne

(OUTRO)
Tunning: Standard (E A D G B e)
Sonne – By Rammstein
Tabbed by IVANDUKE (ivanduk@hotmail.com)– This is the real guitar tab
of Sonne, Mutter album. Enjoy.

This song uses Drop-D Tuning. You just have to tune your guitar in
standard tuning and then tune down 6th string one half step.

Tuning: D, A, D, G, B, e

[Intro] (x2)

e||------------------------------|----------------------------------||
B||------------------------------|----------------------------------||
G||------------------------------|----------------------------------||
D||-0-0-6-0-6-5-0----0-0-6-0-6-0-|-0-0-6-0-6-5-0----0-0-6-0-6-5-5-5-||
A||-0-0-6-0-6-5-0----0-0-6-0-6-0-|-0-0-6-0-6-5-0----0-0-6-0-6-5-5-5-||
D||-0-0-6-0-6-5-0----0-0-6-0-6-0-|-0-0-6-0-6-5-0----0-0-6-0-6-5-5-5-||

[Verse 1]

e||-------------------------------------------------------||Play when
B||-------------------------------------------------------||there is
G||-------------------------------------------------------||no vocals
D||-------------------------0-0-6-0-6-5-0----0-0-6-0-6-0--||during the
A||-------------------------0-0-6-0-6-5-0----0-0-6-0-6-0--||verse
D||-------------------------0-0-6-0-6-5-0----0-0-6-0-6-0--||
Alle warten auf das licht...


[Pre-Chorus]

e||------------------------------||Bass plays
B||------------------------------||
G||------------------------------||
D||------------------------------||
A||------------------------------||
D||-----------9/-----------------||
Und die velt selt lauf bis zen


[Chorus]

x2 3rd time 4th time
e||---------------------|--------------------||--------------------||
B||---------------------|--------------------||--------------------||
G||---4-----------4-----|---4----------------||---4----------------||
D||---4---2---0---4-----|---4---2---5---4----||---4---4---5---4----||
A||---2---2---0---2-----|---2---2---5---4----||---2---4---5---4----||
D||-------2---0---------|-------2---5---4----||---2---4---5---4----||
Hier komt die sonne... Sie ist der hellste... Hier komt die sonne

Interlude(1:24)(The same as intro-play once)


[Verse 2]

e||--------------------------------------------||Bass plays
B||--------------------------------------------||
G||--------------------------------------------||
D||--------------------------------------------||
A||--------------------------------------------||
D||---0~--------------------------------0~-----||
Die sonne scheint mir aus den händen...

After “Legt sich heiss auf das gesicht”
e||---------------------------------------||
B||---------------------------------------||
G||---------------------------------------||
D||--0-0-6-0-6-5-0---0-0-6-0-6-0----------||
A||--0-0-6-0-6-5-0---0-0-6-0-6-0----------||
D||--0-0-6-0-6-5-0---0-0-6-0-6-0----------||

After “Sie wird heut nacht nicht untergehen”
e||---------------------------------------||
B||---------------------------------------||
G||---------------------------------------||
D||--0-0-6-0-6-5-0---0-0-6-0-6-0----------||
A||--0-0-6-0-6-5-0---0-0-6-0-6-0----------||
D||--0-0-6-0-6-5-0---0-0-6-0-6-0----------||


[Pre-Chorus]

Chorus(x2)

Verse 3(2:47)

Symphonic part arranged for guitar
e||------------------|------------------||
B||------------------|------------------||
G||------------------|------------------||
D||------------------|------------------||
A||------7---5---3---|------7---5---3---||
D||--9---------------|--9---------------||
Die sonne scheint...

e||---------------------|--------------------||
B||---------------------|--------------------||
G||---------------------|--------------------||
D||-------9-------------|-------9------------||
A||---7-------10---9----|---7-------10---9---||
D||---------------------|--------------------||
Legt sich schmerzend auf...

Chorus(x2)

Outro(4:04)

Guitar, bass and drums off: Symphonic part of Verse 3 again,
during the vocals of the end.

•Any comments, questions or corrections? Just E-mail me to ivanduk@hotmail.com.
Your comments are important to get 100% accuracy in Rammstein’s tabs. Use soft
distortion on the chorus and a violin or cello effect on your guitar during the
symphonic parts to get the best performance of that song. This tab is 100%
accuracy.



************************************

| / Slide up
| ~ Vibrato

************************************
Tunning: Standard (E A D G B e)
Artist : Rammstein
Song Title: Sonne
Album : Mutter
Tabbed by : Stephen Parris

Tuning
======
Dropped-D (1/2 Step)
Low to High
D A D G B E

Intro (Low Volume, Clean)

EI-------------------I
BI-------------------I
GI-------------------I
DI-------------------I
AI-------------------I
DI-0-0--6-0--0-0-6-0-I

Intro Verse (Metal Distortion)

EI----------------------------------I
BI----------------------------------I
GI----------------------------------I
DI-00--65-65--0-------00--65--65----I
AI-00--65-65--0-------00--65--65----I
DI-00--65-65--0-------00--65--65----I
x2
EI----------------------------------I
BI----------------------------------I
GI----------------------------------I
DI-00--65-65--0-------00--65--65555-I
AI-00--65-65--0-------00--65--65555-I
DI-00--65-65--0-------00--65--65555-I

Verse (Metal Distortion)

EI----------------------------------I
BI----------------------------------I
GI----------------------------------I
DI-00--65-65--0-------00--65--65----I
AI-00--65-65--0-------00--65--65----I
DI-00--65-65--0-------00--65--65----I

Chorus (Metal Distortion)

EI----------------------------------I
BI----------------------------------I
GI----------------------------------I
DI-9/------17/16/-----14/-----------I x4
AI-9/------17/16/-----14/-----------I
DI-7/------15/14/-----12/-----------I

Interlude

EI----------------------------------------------I
BI-----12-14-15--19--12------12-14-15-17-14-----I
GI-11---------------------11--------------------I x2
DI----------------------------------------------I
AI----------------------------------------------I
DI----------------------------------------------I

EI----------------------------------I
BI------------------14/15-15-15/14--I
GI---11^--12^-11--------------------I X2
DI----------------------------------I
AI----------------------------------I
DI----------------------------------I


Order:
Intro x9
Intro Verse
Verse x3
Chorus
Intro Verse
Verse x2
Chorus x2
Interlude
Chorus x2

LYRICS/SONG GUIDE:

(INTRO)
Eins, zwei, drei, vier, fünf, sechs, sieben, acht, neun, aus

(Main Riff)
Alle warten auf das Licht
fürchtet euch fürchtet euch nicht
die Sonne scheint mir aus den Augen
sie wird heut Nacht nicht untergehen
und die Welt zählt laut bis zehn

(Chorus)
Eins
Hier kommt die Sonne
Zwei
Hier kommt die Sonne
Drei
Sie ist der hellste Stern von allen
Vier
Hier kommt die Sonne

(Main Riff)
Die Sonne scheint mir aus den Händen
kann verbrennen, kann euch blenden
wenn sie aus den Fäusten bricht
legt sich heiss auf das Gesicht
sie wird heut Nacht nicht untergehen
und die Welt zählt laut bis zehn

Chorus)
Eins
Hier kommt die Sonne
Zwei
Hier kommt die Sonne
Drei
Sie ist der hellste Stern von allen
Vier
Hier kommt die Sonne

(Chorus/Outro)
Fünf
Hier kommt die Sonne
Sechs
Hier kommt die Sonne
Sieben
Sie ist der hellste Stern von allen
Acht, neun
Hier kommt die Sonne

(NO GUITAR! ONLY DRUMS ANS KEYBOARD)
Die Sonne scheint mir aus den Händen
kann verbrennen, kann dich blenden
wenn sie aus den Fäusten bricht
legt sich heiss auf dein Gesicht
legt sich schmerzend auf die Brust
das Gleichgewicht wird zum Verlust
lässt dich hart zu Boden gehen
und die Welt zählt laut bis zehn

(Chorus/Outro)
Eins
Hier kommt die Sonne
Zwei
Hier kommt die Sonne
Drei
Sie ist der hellste Stern von allen
Vier
Und wird nie vom Himmel fallen
Fünf
Hier kommt die Sonne
Sechs
Hier kommt die Sonne
Sieben
Sie ist der hellste Stern von allen
Acht , neun
Hier kommt die Sonne

(OUTRO)
Song info
Sonne
Rammstein
2001
  • Electronic
  • Rock
  • Heavy Metal
  • Industrial
Alternative tracks
Similar songs
Supernaut - Black Sabbath
Afterlife - Avenged Sevenfold
Sleepless Nights - King Diamond
Headless Cross - Black Sabbath

Hi! Hope you enjoy backing track experience.
If you want to help us in the development of the project, feel free to donate!