Soul To Squeeze - Red Hot Chili Peppers
00:00 / 00:00
Tabs and lyrics
Tunning: Standard (E A D G B e)
From: Didier Thizy <75624.1665@CompuServe.COM>
Soul to Squeeze
Red Hot Chili Peppers

[Intro]
e|----------------------------------|
B|----------------------------------|
G|------2-----4b54p2-------------2--|
D|---2----------------------2h4-----|
A|0--------0----------0--0----------|
E|----------------------------------|

e|-----------------------------------------|
B|------------------------------5----------|
G|-------2-----------2-----4/6-----6\4--2--|
D|----2--------2---------------------------|
A|-0--------0-----0-----0------------------|
E|-----------------------------------------|

e|-----------------------------------|--------------------------------|
B|-----------------------------------|--------------------------------|
G|--------2-----4b5p2-------------2--|--------2-----------------------|
D|-----2---------------------2h4-----|-----2--------2-----2-----0-----|
A|--0--------0---------0--0----------|--0--------0-----0--------------|
E|-----------------------------------|-----------------------3-----3--|

e|-----------------------------------|
B|-----------------------------------|
G|--------2-----4b5p2-------------2--|
D|-----2---------------------2h4-----|
A|--0--------0---------0--0----------|
E|-----------------------------------|

e|----------------------------------------|
B|-------------------------------5--------|
G|--------2-----------------4/6-----6p4p2-|
D|-----2--------2-----2-------------------|
A|--0--------0-----0-----0----------------|
E|----------------------------------------|

e|----------------------------------|
B|----------------------------------|
G|--------2-----4b5p2-------------2-|
D|-----2---------------------2h4----|
A|--0--------0---------0--0---------|
E|----------------------------------|

(Ok, now play these notes with a slide, over this progression)
(F C Dm Dm F C Gm7 F C Dm Dm F C Gm7)

e|---------------------------|--------------------------------|
B|---8/10------8/10----------|---13/15------15\13-------------|
G|---------------------------|----------------------------14--|
D|---------------------------|--------------------------------|
A|---------------------------|--------------------------------|
E|---------------------------|--------------------------------|

e|-----------------|----------------|--------------|-----------------|
B|-------13--------|----------------|-----------13-|-----------13/15-|
G|-----------14----|-10-------------|--12/14-------|--14-------------|
D|-----------------|----------------|--------------|-----------------|
A|-----------------|----------------|--------------|-----------------|
E|-----------------|----------------|--------------|-----------------|

e|-------------------------|-----------------|
B|--------13/15---------13-|-----------------|
G|-------------------------|--------------14-|
D|-------------------------|-----------------|
A|-------------------------|-----------------|
E|-------------------------|-----------------|

[Verse 1]
(is just the chord progression repeated again)
F C Dm Dm F C Gm
I've got a bad disease. All from my brain is where I bleed.

F C Dm Dm F C Gm
Insanity it seems, has got me by my soul to squeeze.

[Verse 2]
(played with the same progression and these notes)
e|------------8/10\8---------|------------------|
B|---------------|-----------|--------------10--|
G|---------------|-----------|------------------|
D|---------------|-----------|------------------|
A|---------------|-----------|------------------|
E|---------------|-----------|------------------|

e|------------------|--------------|
B|--------13---10/11\10----6-------|
G|------------------|--------------|
D|------------------|--------------|
A|------------------|--------------|
E|------------------|--------------|

[Chorus]
F C Dm9 Bb#11
Where I go, I just don't know. I got to, got to, gotta take it slow.
F C Dm9 A Bb
When I find my peace of mind, I'm gonna give you some of my good time.

[Verse 3]

[Chorus]
F C Dm9 Bb#11
Where I go, I just don't know. I got to, got to, gotta take it slow.
F C Dm9 A Bb
When I find my peace of mind, I'm gonna give you some of my good time.

[Solo]
(with the rhythm progression):
e|-------------------|----|-----------8--------|------------------|
B|-10\8--6--8/10--6~-|----|-/10-10-10----10\8--|-----6---------6--|
G|-------------------|----|--------------------|--------/7--------|
D|-------------------|----|--------------------|------------------|
A|-------------------|----|--------------------|------------------|
E|-------------------|----|--------------------|------------------|

e|----------------------|--------|--------------/10\8----------|------------|
B|-/10--8--6--8--10-6/8-|-\6-----|-/10--10--10----------10--10-|-\8-\6-\5---|
G|----------------------|-----7--|-----------------------------|------------|
D|----------------------|--------|-----------------------------|------------|
A|----------------------|--------|-----------------------------|------------|
E|----------------------|--------|-----------------------------|------------|

e|--/10------|----10\8----5----|---/10\8---------|--(8)--|---------------|
B|-----------|-----------------|-----------------|-------|-------13/15\--|
G|-----------|-----------------|-----------------|-------|---------------|
D|-----------|-----------------|-----------------|-------|---------------|
A|-----------|-----------------|-----------------|-------|---------------|
E|-----------|-----------------|-----------------|-------|---------------|

e|----------------------|
B|-13-----15\10---10\5--|
G|----------------------|
D|----------------------|
A|----------------------|
E|----------------------|

[Verse 4]

[Bridge]
(with rhythm progression, vary and add bass notes here and there):
e|---------13/15-|----------13-|------------------------|------------------|
B|---------------|-------------|--15-------13/15--------|----10/11---------|
G|---------------|-------------|------------------15\14-|-------------12---|
D|---------------|-------------|------------------------|------------------|
A|---------------|-------------|------------------------|------------------|
E|---------------|-------------|------------------------|------------------|

e|----------------|--------------------------|---------|-------|
B|----------------|---------/10--------------|---------|-------|
G|--10------------|-----------------------10-|---(10)--|-------|
D|----------------|--------------------------|---------|-------|
A|----------------|--------------------------|---------|-------|
E|----------------|--------------------------|---------|-------|

[Ending Chorus]
(again with rhythm)
e|--------------|---------------|------------|-------------------|
B|--/10---------|---------8\6---|-6----------|--------------6/7\-|
G|--------------|---------------|------------|--5/7--------------|
D|--------------|---------------|------------|-------------------|
A|--------------|---------------|------------|-------------------|
E|--------------|---------------|------------|-------------------|

e|--------------------|---------------|-------------------------|
B|-\6-----------11/13-|--11\10--------|--11\10---------10/15----|
G|--------------------|---------------|-------------------------|
D|--------------------|---------------|-------------------------|
A|--------------------|---------------|-------------------------|
E|--------------------|---------------|-------------------------|

e|------------------|------------------|--------------|---------------------|
B|--15------15------|----------13------|-/10----------|----------10---------|
G|------------------|--/14---------14--|----------10--|---9/10--------10----|
D|------------------|------------------|--------------|---------------------|
A|------------------|------------------|--------------|---------------------|
E|------------------|------------------|--------------|---------------------|

e|-------------------|-------------------|---------|
B|----------8--\6----|--------10---------|---------|
G|--9/10-------------|--9/10-------10----|--(10)---|
D|-------------------|-------------------|---------|
A|-------------------|-------------------|---------|
E|-------------------|-------------------|---------|

************************************

| p Pull-off
| b Bend
| h Hammer-on
| / Slide up
| \ Slide down
| ~ Vibrato
| (n) Ghost note

************************************
Tunning: Standard (E A D G B e)
Soul to squeeze
Red hot chilli peppers

b - bend
r - release
/ - slide
~ - vibrato
x - mute string
() - don't play note
h - hammer on
p - pull off

standard tuning


intro

E---------------------------------------------|
B---------------------------------------------|
G-------2------4br(5)-2-------------2---------|
D----2-------------------------2h4------------|
A-0--------0-------------0--0-----------------|
E---------------------------------------------|



E---------------------------------------------|
B-----------------------------5---------------|
G-------2-----------2-----4/6---6/4--2--------|
D----2--------2-------------------------------|
A-0--------0-----0-----0----------------------|
E---------------------------------------------|

E--------------------------------------|------------------------------|
B--------------------------------------|------------------------------|
G-------2-----4br(5)-2-------------2---|-------2----------------------|
D----2------------------------2h4------|----2--------2-----2-----0----|
A-0--------0------------0--0-----------|-0--------0-----0-------------|
E--------------------------------------|----------------------3-----3-|

E---------------------------------------------|
B---------------------------------------------|
G-------2------4br(5)xx------------2----------|
D----2-------------------------2h4------------|
A-0--------0-------------0--0-----------------|
E---------------------------------------------|



E-------------------------------5--------------|
B----------------------------------------------|
G-------2------------------4/6-----6\4p2-------|
D----2--------2-----2--------------------------|
A-0--------0-----0-----0-----------------------|
E----------------------------------------------|

E---------------------------------------------|
B---------------------------------------------|
G-------2-----4br(5)-2-------------2----------|
D----2------------------------2h4-------------|
A-0--------0------------0--0------------------|
E---------------------------------------------|

now play these slides with this chord progression:

F C Dm Dm F C Gm7 F C Dm Dm F C Gm7


E----------------------|----------------------------------------|
B--8/10---8/10---------|--------------13/15--15\13--------10----|
G----------------------|----------------------------------------|
D----------------------|----------------------------------------|
A----------------------|----------------------------------------|
E----------------------|----------------------------------------|

E-------------|---------------|--------------|-----------------------|
B----13--10---|---------------|-----------13-|--10---------13/15~----|
G-------------|--10~----------|---12b(14)----|-----------------------|
D-------------|---------------|--------------|-----------------------|
A-------------|---------------|--------------|-----------------------|
E-------------|---------------|--------------|-----------------------|

E---------------------|------------------------|
B----13/15~--------13-|-------10---------------|
G---------------------|------------------------|
D---------------------|------------------------|
A---------------------|------------------------|
E---------------------|------------------------|

Verse (same chord progression)


'well all the love from me'
E---------------------------------------------|
B-------------------------------13/15\13~-----|
G---------------------------------------------|
D---------------------------------------------|
A---------------------------------------------|
E---------------------------------------------|

'with all these dying trees i scream'
E---------------------------------------------|
B--------------------------------------13-10~-|
G---------------------------------------------|
D---------------------------------------------|
A---------------------------------------------|
E---------------------------------------------|

'the angels in my dreams'
E---------------------------------------------|
B-------------------------8h10p8\6------------|
G---------------------------------------------|
D---------------------------------------------|
A---------------------------------------------|
E---------------------------------------------|

'have turned to demons of greed that's me'
E---------------------------------------------|
B---------------------------------------------|
G---------------------------------------------|
D---------------------------------------------|
A---------------------------------------------|
E---------------------------------------------|

chorus

'where i go'
E-----------------0---------------------------|
B-----------------6---------------------------|
G-----------------7---------------------------|
D---------------------------------------------|
A---------------------------------------------|
E---------------------------------------------|

'i just don't know'
E-----------------------0---------------------|
B-----------------------6---------------------|
G---------------------------------------------|
D---------------------------------------------|
A---------------------------------------------|
E---------------------------------------------|

'i got to, gotta, gotta take it slow
E-------------------------0-------------------|
B-------------------------6-------------------|
G---------------------------------------------|
D---------------------------------------------|
A---------------------------------------------|
E---------------------------------------------|

'when i find my piece of mind'
E------------------0--------------------------|
B------------------6--------------------------|
G------------------7--------------------------|
D---------------------------------------------|
A---------------------------------------------|
E---------------------------------------------|

'i'm gonna give you some of my good time'
E--0----0----0----0---0---0---------------------------|
B--6----6----6----6---6---6-------6-------------------|
G-----------------------------7-------6---------------|
D-----------------------------------------------------|
A-----------------------------------------------------|
E-----------------------------------------------------|

verse

'today love smiled on me'
E---------------------------------------------|
B----13~--------------------------------------|
G---------------------------------------------|
D---------------------------------------------|
A---------------------------------------------|
E---------------------------------------------|

'it took away my pain, said please'
E-------------------------------------------------------------|
B---------------------------------------13-15--10h13p10\8-6---|
G-------------------------------------------------------------|
D-------------------------------------------------------------|
A-------------------------------------------------------------|
E-------------------------------------------------------------|

'all that you ride is free'
E--------------------------------------------------|
B-----------------------------10h13-10-8-----------|
G--------------------------------------------------|
D--------------------------------------------------|
A--------------------------------------------------|
E--------------------------------------------------|

'you gotta let it be, oh yeah'
E---------------------------------------------|
B---------------------------------------------|
G---------------------------------------------|
D---------------------------------------------|
A---------------------------------------------|
E---------------------------------------------|

chorus

'where i go'
E-----------------0---------------------------|
B-----------------6---------------------------|
G-----------------7---------------------------|
D---------------------------------------------|
A---------------------------------------------|
E---------------------------------------------|

'i just don't know'
E-----------------------0---------------------|
B-----------------------6---------------------|
G---------------------------------------------|
D---------------------------------------------|
A---------------------------------------------|
E---------------------------------------------|

'i got to, gotta, gotta take it slow
E-------------------------0-------------------|
B-------------------------6-------------------|
G---------------------------------------------|
D---------------------------------------------|
A---------------------------------------------|
E---------------------------------------------|

'when i find my piece of mind'
E------------------0--------------------------|
B------------------6--------------------------|
G------------------7--------------------------|
D---------------------------------------------|
A---------------------------------------------|
E---------------------------------------------|

'i'm gonna give you some of my good time'
E--0----0----0----0---0---0---------------------------|
B--6----6----6----6---6---6-------6-------------------|
G-----------------------------7-------6---------------|
D-----------------------------------------------------|
A-----------------------------------------------------|
E-----------------------------------------------------|

Solo

E-------------------------------------------------------------------|
B---------------------------------------------------------------13--|
G--12br(14)-10--12--12--10~-------------12b(14)-12b(14)-12b(14------|
D-------------------------------------------------------------------|
A-------------------------------------------------------------------|
E-------------------------------------------------------------------|

E---------------------------------------------------------------------|
B---------------------------------------------------------------------|
G-10--12--10--------10----------12br(14)-10--12--12--10br(12)---------|
D--------------10b(12)----------------------------------------10b(12)-|
A---------------------------------------------------------------------|
E---------------------------------------------------------------------|

E-------------------------------------------------------------|
B--------------------------13br(15)-10--13--10--8--6----------|
G--12b(14)-12b(14)-12b(14)------------------------------------|
D-------------------------------------------------------------|
A-------------------------------------------------------------|
E-------------------------------------------------------------|

'yeah'
E---------------------------------------------|
B------13b(15)--------------------------------|
G---------------------------------------------|
D---------------------------------------------|
A---------------------------------------------|
E---------------------------------------------|

E--------------------------------------------------|
B----------13b(15)------------15\13--10--13b(15)---|
G--5b(7)-------------------------------------------|
D--------------------------------------------------|
A--------------------------------------------------|
E--------------------------------------------------|

E---------------------------------------------------------------------|
B---------------------------------------------13b(15)---10--13--10\6~-|
G----------------------------------------5b(7)------------------------|
D---------------------------------------------------------------------|
A---------------------------------------------------------------------|
E---------------------------------------------------------------------|

verse (same chords: F C Dm Dm F C Gm7 F C Dm Dm F C Gm7)

'it's bitter baby and it's very sweet'
E---------------------------------------------------|
B----------------------------------------13/15~-----|
G---------------------------------------------------|
D---------------------------------------------------|
A---------------------------------------------------|
E---------------------------------------------------|

'i'm on a rollercoaster but i'm on my feet'
E-----------------------------------------------------|
B----------------------------------------------18-15~-|
G-----------------------------------------------------|
D-----------------------------------------------------|
A-----------------------------------------------------|
E-----------------------------------------------------|

'take me to the river let me on your shore'
E------------------------------------------------------|
B--------------------------------------------13br(15)--|
G------------------------------------------------------|
D------------------------------------------------------|
A------------------------------------------------------|
E------------------------------------------------------|

'I'll becoming back baby i'll becoming back for more'
E------------------------------------------------------|
B--------------------------10br(12)---8-----------6----|
G------------------------------------------------------|
D------------------------------------------------------|
A------------------------------------------------------|
E------------------------------------------------------|

'doo doo doo doo dingle zing a dong bone
E---------------------------------------------|
B---------------------------------------------|
G---------------------------------------------|
D---------------------------------------------|
A---------------------------------------------|
E---------------------------------------------|

'ba di ba da ba zumba crunga bong gone bad'
E---------------------------------------------|
B------------------------8b(10)-----------6~--|
G---------------------------------------------|
D---------------------------------------------|
A---------------------------------------------|
E---------------------------------------------|

'like an apple gift but i went and never said my pleasures
E-----------------------------------------------------------|
B-----------------------------------------------------------|
G-----------------------------------------------------------|
D-----------------------------------------------------------|
A-----------------------------------------------------------|
E-----------------------------------------------------------|

'i'm much better but i won't regret it never
E-----------------------------------------------|
B-----------------------------------------------|
G-----------------------------------------------|
D-----------------------------------------------|
A-----------------------------------------------|
E-----------------------------------------------|

chorus

'where i go'
E---------------------------------------------|
B---------------------------------------------|
G-------12b(14)-------------------------------|
D---------------------------------------------|
A---------------------------------------------|
E---------------------------------------------|

'i just don't know'
E---------------------------------------------|
B---------------------------------------------|
G-----------------------12\10~----------------|
D---------------------------------------------|
A---------------------------------------------|
E---------------------------------------------|

'i got to, gotta, gotta take it slow'
E-----------------------------------------------------|
B-----------------------------------------------------|
G------------------------------------------10/12--10~-|
D-------------------------10b(12)---------------------|
A-----------------------------------------------------|
E-----------------------------------------------------|

'when i find my piece of mind'
E---------------------------------------------|
B--------------13b(15)-13--10~----------------|
G---------------------------------------------|
D---------------------------------------------|
A---------------------------------------------|
E---------------------------------------------|

'i'm gonna give you some of my good time'
E---------------------------------------------|
B-----------------13b(15)-------------15------|
G---------------------------------------------|
D---------------------------------------------|
A---------------------------------------------|
E---------------------------------------------|

'where i go'
E---------------------------------------------|
B-----------8b(10)----------------------------|
G---------------------------------------------|
D---------------------------------------------|
A---------------------------------------------|
E---------------------------------------------|

'i just don't know'
E----------------------0----------------------|
B---8br(10)------6-----6----------------------|
G---------------------------------------------|
D---------------------------------------------|
A---------------------------------------------|
E---------------------------------------------|

'i might end up somewhere in mexico'
E---------------------------------------------|
B-----------------6br(8)----------6-----------|
G-------------------------7br(9)----7---------|
D---------------------------------------------|
A---------------------------------------------|
E---------------------------------------------|

'when i find my piece of mind'
E---------------------------------------------|
B-6br(8)--10------6br(8)---13---10------------|
G---------------------------------------------|
D---------------------------------------------|
A---------------------------------------------|
E---------------------------------------------|

'i'm gonna keep it for the end of time'
E---------------------------------------------|
B---------------------------------------------|
G---------------------------------------------|
D---------------------------------------------|
A---------------------------------------------|
E---------------------------------------------|


email comments to d_register@yahoo.co.uk
Tunning: Standard (E A D G B e)
The other tabs are good but none of them tabbed the verse(s) rythm of this song so
thats what I've done here. It took me ages to do so enjoy it!


[Intro]

Guitar I
e|----------------------------------|
B|----------------------------------|
G|------2-----4b54p2-------------2--|
D|---2----------------------2h4-----|
A|0--------0----------0--0----------|
E|----------------------------------|

e|-----------------------------------------|
B|------------------------------5----------|
G|-------2-----------2-----4/6-----6\4--2--|
D|----2--------2---------------------------|
A|-0--------0-----0-----0------------------|
E|-----------------------------------------|

e|-----------------------------------|----------------------------------|
B|-----------------------------------|----------------------------------|
G|--------2-----4b5p2-------------2--|--------2-------------------------|
D|-----2---------------------2h4-----|-----2--------2-----2------0------|
A|--0--------0---------0--0----------|--0--------0-----0----------------|
E|-----------------------------------|-----------------------3b4---3b4--|

e|-----------------------------------|
B|-----------------------------------|
G|--------2-----4b5p2-------------2--|
D|-----2---------------------2h4-----|
A|--0--------0---------0--0----------|
E|-----------------------------------|

e|-------------------------------5--------|
B|----------------------------------------|
G|--------2-----------------4/6-----6p4p2-|
D|-----2--------2-----2-------------------|
A|--0--------0-----0-----0----------------|
E|----------------------------------------|

e|----------------------------------|
B|----------------------------------|
G|--------2-----4b5p2-------------2-|
D|-----2---------------------2h4----|
A|--0--------0---------0--0---------|
E|----------------------------------|

e|----------------------------------|
B|-----------2—--2---2---2----------|
G|--------2--2—--2---2---2----------|
D|-----2-----2—--2---2---2----------|
A|--0--------0---0---0---0----------|
E|--------------------------3-------|
| |
|Guitar II |
e|----------------------------------|
B|---8/10------8/10-----------------|
G|----------------------------------|
D|----------------------------------|
A|----------------------------------|
E|----------------------------------|

F C Dm Bb/Dm
e|-------1----------------------|--------------------|
B|-------1-----------5-—5-------|-6--6-6-6-6---------|
G|-------2-----------5--5-------|-7--7-7-7-7---------|
D|-------3-----------5--5-------|-7--7-7-7-7---------|
A|-------3--------3--3--3---5/7-|-5--5-5-5-X---------|
E|-0--1--1---3/5----------------|----------6---------|
| Guitar II |
e|------ -----------------------|--------------------|
B|--- 13/15-----15\13-----------|--------------13----|
G|----------- -------------14---|-----------------14-|
D|---------------- -------------|--------------------|
A|---------- -------------------|--------------------|
E|-------------- ---------------|--------------------|

Dm F C Gm
e|-----------------------------------------|----------3---3-3---|
B|--6-6-6-6-6-6-6-X-8--8--8--8--8--8--8--X-|-3-3-3-3--3---3-3---|
G|--7-7-7-7-7-7-7-X-10-10-10-10-10-10-10-X-|-5-5-5-5--3---3-3---|
D|--7-7-7-7-7-7-7-X-10-10-10-10-10-10-10-X-|-5-5-5-5—-5---5-5---|
A|--5-5-5-5-5-5-5-X-10-10-10-10-10-10-10-X-|-5-5-5-5--5---5-5---|
E|-----------------------------------------|--------------------|
| |
|Guitar II |
e|-----------------------------------------|--------------------|
B|-----------------------------------------|----------------13--|
G|--10-------------------------------------|---12/14------------|
D|-----------------------------------------|--------------------|
A|-----------------------------------------|--------------------|
E|-----------------------------------------|--------------------|

F C Dm Dm
e|-------1----------------------|----------------------|
B|-------1-----------5-—5-------|-6---------------6----|
G|-------2-----------5--5-------|-7-(/10)10h12p10-7----|
D|-------3-----------5--5-------|-7-(/10)10-------7----|
A|-------3--------3--3--3---5/7-|-5---------------5----|
E|-0--1--1---3/5----------------|----------------------|
|Guitar II |
e|-----------------------------------------------------|
B-----------------------------13/15--------------------|
G|-----------------------------------------------------|
D|-----------------------------------------------------|
A|-----------------------------------------------------|
E|-----------------------------------------------------|

Dm F C Gm
e|-----------------------------------------|----------3---3-3---|
B|--6-6-6-6-6-6-6-X-8--8--8--8--8--8--8--X-|-3-3-3-3--3---3-3---|
G|--7-7-7-7-7-7-7-X-10-10-10-10-10-10-10-X-|-5-5-5-5--3---3-3---|
D|--7-7-7-7-7-7-7-X-10-10-10-10-10-10-10-X-|-5-5-5-5—-5---5-5---|
A|--5-5-5-5-5-5-5-X-10-10-10-10-10-10-10-X-|-5-5-5-5--5---5-5---|
E|-----------------------------------------|--------------------|
| Guitar II |
e|-----------------------------------------|--------------------|
B|--------13/15----------------------------|---13---------------|
G|-----------------------------------------|-----------------14-|
D|-----------------------------------------|--------------------|
A|-----------------------------------------|--------------------|
E|-----------------------------------------|--------------------|


[First Verse]

No guitar part first time round!!!

F C Dm Bb/Dm
e|-------1----------------------|--------------------|
B|-------1-----------5-—5-------|-6--6-6-6-6---------|
G|-------2-----------5--5-------|-7--7-7-7-7---------|
D|-------3-----------5--5-------|-7--7-7-7-7---------|
A|-------3--------3--3--3---5/7-|-5--5-5-5-X---------|
E|-0--1--1---3/5----------------|----------6---------|
| |
| Guitar II |
e|-----------------------8/10\8----------------------|
B|---------------------------------------------------|
G|---------------------------------------------------|
D|---------------------------------------------------|
A|---------------------------------------------------|
E|---------------------------------------------------|

Dm F C Gm
e|-----------------------------------------|----------3---3-3---|
B|--6-6-6-6-6-6-6-X-8--8--8--8--8--8--8--X-|-3-3-3-3--3---3-3---|
G|--7-7-7-7-7-7-7-X-10-10-10-10-10-10-10-X-|-5-5-5-5--3---3-3---|
D|--7-7-7-7-7-7-7-X-10-10-10-10-10-10-10-X-|-5-5-5-5—-5---5-5---|
A|--5-5-5-5-5-5-5-X-10-10-10-10-10-10-10-X-|-5-5-5-5--5---5-5---|
E|-----------------------------------------|--------------------|
| Guitar II |
e|--------------------------------------------10----------------|
B|--------------------------------------------------13—10/11/10-|
G|--------------------------------------------------------------|
D|--------------------------------------------------------------|
A|--------------------------------------------------------------|
E|--------------------------------------------------------------|

F C Dm Dm
e|-------1----------------------|----------------------|
B|-------1-----------5-—5-------|-6---------------6----|
G|-------2-----------5--5-------|-7-(/10)10h12p10-7----|
D|-------3-----------5--5-------|-7-(/10)10-------7----|
A|-------3--------3--3--3---5/7-|-5---------------5----|
E|-0--1--1---3/5----------------|----------------------|
| |
| Guitar II |
e|-----------------------------------------------------|
B|---------------------------------------------10/6----|
G|-----------------------------------------------------|
D|-----------------------------------------------------|
A|-----------------------------------------------------|
E|-----------------------------------------------------|


[Chorus]

Use these chords but only strum once as written above lyrics below|

F C Dm9 Bb Am Bb
e|-------------0----------------|
B|---10---8----6---6---5--6-----|
G|---10---9----7---7---5--7-----|
D|---10---10---7---8---7--8-----|
A|------------------------------|
E|------------------------------|

F C Dm9 Bb#11
Where I go, I just don't know. I got to, got to, gotta take it slow.
F C Dm9 Dm9 Dm9 Dm9 Am Am Bb
When I find my peace of mind, I'm gonna give you some of my good time.


[Verse]

No rhythm just lead in this verse!!

Guitar II
e|--------|-10----10------------------------------------|
B|---10---|-----------10/13\11\10h11p10\6\3-------------|
G|--------|----------------------------------3----------|
D|--------|---------------------------------------------|
A|--------|---------------------------------------------|
E|--------|---------------------------------------------|
Guitar II
e|------------------------------------------------------|
B|-----------------10/13\11\10\6------------------------|
G|------------------------------------------------------|
D|------------------------------------------------------|
A|------------------------------------------------------|
E|------------------------------------------------------|


[Chorus]

Same as above


[Solo]

e|-------------------|----|-----------8--------|------------------|
B|-10\8--6--8/10--6~-|----|-/10-10-10----10\8--|-----6---------6--|
G|-------------------|----|--------------------|--------/7--------|
D|-------------------|----|--------------------|------------------|
A|-------------------|----|--------------------|------------------|
E|-------------------|----|--------------------|------------------|

e|----------------------|--------|--------------/10\8----------|------------|
B|-/10--8--6--8--10-6/8-|-\6-----|-/10--10--10----------10--10-|-\8-\6-\5---|
G|----------------------|-----7--|-----------------------------|------------|
D|----------------------|--------|-----------------------------|------------|
A|----------------------|--------|-----------------------------|------------|
E|----------------------|--------|-----------------------------|------------|


[Bridge]

(with rhythm progression, vary and add bass notes here and there)|

Dm C Am
e|--------------------------|-----------------------------------|
B|--6---6--x-x-5----5--5----|--1-1-1-1-1-1-1-1-1-1-1-1-1-1-1-1--|
G|--7---7--x-x-5----5--5----|--2-2-2-2-2-2-2-2-2-2-2-2-2-2-2-2--|
D|--7---7--x-x-5----5--5----|--2-2-2-2-2-2-2-2-2-2-2-2-2-2-2-2--|
A|--5---5--x-x-3----3--3----|--0-0-0-0-0-0-0-0-0-0-0-0-0-0-0-0--|
E|--------------------------|-----------------------------------|
|
|Guitar II
e|----------/10~~~~~~~~------------------------------------------|
B|---------------------------------------------------------------|
G|---------------------------------------------------------------|
D|---------------------------------------------------------------|
A|---------------------------------------------------------------|
E|---------------------------------------------------------------|

e|--------------------------|-----------------------------------|
B|--6---6--x-x-5----5--5----|--1-1-1-1-1-1-1-1-1-1-1-1-1-1-1-1--|
G|--7---7--x-x-5----5--5----|--2-2-2-2-2-2-2-2-2-2-2-2-2-2-2-2--|
D|--7---7--x-x-5----5--5----|--2-2-2-2-2-2-2-2-2-2-2-2-2-2-2-2--|
A|--5---5--x-x-3----3--3----|--0-0-0-0-0-0-0-0-0-0-0-0-0-0-0-0--|
E|--------------------------|-----------------------------------|
|Guitar II |
e|-------------/10~~~~~~~~~~~~~~(10)\8\5~~~~~~~~~~~~~~~~~~~~~~~~~|
B|---------------------------------------------------------------|
G|--5/7----------------------------------------------------------|
D|---------------------------------------------------------------|
A|---------------------------------------------------------------|
E|---------------------------------------------------------------|

e|--------------------------|-----------------------------------|
B|--6---6--x-x-5----5--5----|--1-1-1-1-1-1-1-1-1-1-1-1-1-1-1-1--|
G|--7---7--x-x-5----5--5----|--2-2-2-2-2-2-2-2-2-2-2-2-2-2-2-2--|
D|--7---7--x-x-5----5--5----|--2-2-2-2-2-2-2-2-2-2-2-2-2-2-2-2--|
A|--5---5--x-x-3----3--3----|--0-0-0-0-0-0-0-0-0-0-0-0-0-0-0-0--|
E|--------------------------|-----------------------------------|
| Guitar II
e|(5)/10---------------------------------------------------------|
B|---------------------------------------------------------------|
G|---------------------------------------------------------------|
D|---------------------------------------------------------------|
A|---------------------------------------------------------------|
E|---------------------------------------------------------------|

e|--------------------------|-----------------------------------|
B|--6---6--x-x-5----5--5----|--1--1--3--------------------------|
G|--7---7--x-x-5----5--5----|--2--2--3--------------------------|
D|--7---7--x-x-5----5--5----|--2--2--3--------------------------|
A|--5---5--x-x-3----3--3----|--0--0--1--------------------------|
E|--------------------------|-----------------------------------|
| Guitar II
e|-------------/10~~~~~~~~(10)\8---------------------------------|
B|--------------------------------10\6---------------------------|
G|--5/7----------------------------------------------------------|
D|---------------------------------------------------------------|
A|---------------------------------------------------------------|
E|---------------------------------------------------------------|


[Verse]

Same as above

No guitar part first time round!!!

F C Dm Bb/Dm
e|-------1----------------------|--------------------|
B|-------1-----------5-—5-------|-6--6-6-6-6---------|
G|-------2-----------5--5-------|-7--7-7-7-7---------|
D|-------3-----------5--5-------|-7--7-7-7-7---------|
A|-------3--------3--3--3---5/7-|-5--5-5-5-X---------|
E|-0--1--1---3/5----------------|----------6---------|
| |
| Guitar II |
e|10~~~---------------------8/10~~-------------------|
B|---------------------------------------------------|
G|---------------------------------------------------|
D|---------------------------------------------------|
A|---------------------------------------------------|
E|---------------------------------------------------|

Dm F C Gm
e|-----------------------------------------|----------3---3-3---|
B|--6-6-6-6-6-6-6-X-8--8--8--8--8--8--8--X-|-3-3-3-3--3---3-3---|
G|--7-7-7-7-7-7-7-X-10-10-10-10-10-10-10-X-|-5-5-5-5--3---3-3---|
D|--7-7-7-7-7-7-7-X-10-10-10-10-10-10-10-X-|-5-5-5-5—-5---5-5---|
A|--5-5-5-5-5-5-5-X-10-10-10-10-10-10-10-X-|-5-5-5-5--5---5-5---|
E|-----------------------------------------|--------------------|
| Guitar II |
e|13/10----------------------10/11\10\6-------------------------|
B|--------------------------------------------------------6/8\6-|
G|--------------------------------------------------------------|
D|--------------------------------------------------------------|
A|--------------------------------------------------------------|
E|--------------------------------------------------------------|

F C Dm Dm
e|-------1----------------------|----------------------|
B|-------1-----------5-—5-------|-6---------------6----|
G|-------2-----------5--5-------|-7-(/10)10h12p10-7----|
D|-------3-----------5--5-------|-7-(/10)10-------7----|
A|-------3--------3--3--3---5/7-|-5---------------5----|
E|-0--1--1---3/5----------------|----------------------|
| |
| Guitar II |
e|----------------|------------------------------------|
B|----------------|---------/10------------------------|
G|--10------------|-----------------------10-----(10)--|
D|----------------|------------------------------------|
A|----------------|------------------------------------|
E|----------------|------------------------------------|


[Ending Chorus]

(same chords as usual chorus but this time strummed heavily)|

F C Dm9 Bb#11
Where I go, I just don't know. I got to, got to, gotta take it slow.
F C Dm9 Dm9 Dm9 Dm9 Am Am Bb F
When I find my peace of mind, I'm gonna give you some of my good time.

e|--------------|---------------|------------|-------------------|
B|--/10---------|---------8\6---|-6----------|--------------6/8\-|
G|--------------|---------------|------------|--5/7--------------|
D|--------------|---------------|------------|-------------------|
A|--------------|---------------|------------|-------------------|
E|--------------|---------------|------------|-------------------|

e|--------------------|---------------|-------------------------|
B|-\6-----------11/13-|--11\10--------|--11\10---------10/15----|
G|--------------------|---------------|-------------------------|
D|--------------------|---------------|-------------------------|
A|--------------------|---------------|-------------------------|
E|--------------------|---------------|-------------------------|

e|------------------|-----------------|--------------|---------------------|
B|--15------15------|---------13------|-/10----------|----------10---------|
G|------------------|--/14--------14--|----------10--|---9/10--------10----|
D|------------------|-----------------|--------------|---------------------|
A|------------------|-----------------|--------------|---------------------|
E|------------------|-----------------|--------------|---------------------|

e|-------------------|-------------------|---------|
B|----------8--\6----|--------10---------|---------|
G|--9/10-------------|--9/10-------10----|--(10)---|
D|-------------------|-------------------|---------|
A|-------------------|-------------------|---------|
E|-------------------|-------------------|---------|


Any problems: danielgregory69@hotmail.com
Cheers


************************************
| x Dead note
| (n) Ghost note
| h Hammer-on
| p Pull-off
| / Slide up
| \ Slide down
| ~ Vibrato
************************************
Song info
Soul To Squeeze
Red Hot Chili Peppers
2001
  • Rock
  • Alternative Rock
Alternative tracks
Similar songs
Conspiracy of One - The Offspring
Soul To Squeeze - Red Hot Chili Peppers
Aenema - Tool
Revolution - The Cult

Hi! Hope you enjoy backing track experience.
If you want to help us in the development of the project, feel free to donate!