Always - Saliva
00:00 / 00:00
Tabs and lyrics
Tunning: Standard (E A D G B e)
Tabbed by chico3473

Tunned down a half step
Eb Ab Db Gb Bb Eb

[Opening riff] simular to this, same chords
Em G5 D5 A5
D#|-----------------------------------------|
A#|-----------------------------------------|
F#|------------------------7----------------|
C#|------2--------5------7---7------7-------|
G#|----2---2----5---5--5----------7---7-----|
D#|--0--------3-----------------5-----------|

[Pre Chorus] (palm mute)
Em G5 A5 C5 D5
D#|---------------------------------------|
A#|---------------------------------------|
F#|---------------------------5-5-/-7-7-7-|
C#|--2-2-2--5-5-5--7-7-7------5-5-/-7-7-7-|
G#|--2-2-2--5-5-5--7-7-7------3-3-/-5-5-5-|
D#|--0-0-0--3-3-3--5-5-5------------------|
Always... alyways ..... I just can't live without you

[Chorus]
Em G5 D5 A5
D#|----------------------------------------|
A#|----------------------------------------|
F#|--------------------7-7-----------------|
C#|--2-2-------5-5-----7-7------7-7-7-7-7--|
G#|--2-2-------5-5-----5-5------7-7-7-7-7--|
D#|--0-0-------3-3--------------5-5-5-5-5--|
I Love you ,I hate you, I just can't live without you ....

(before 2nd verse)
Em
D#|-------------------------|
A#|---------6---------6-----|
F#|-----------9----------9--| (a few times before the verse)
C#|------9----------9-------|
G#|----7---------7----------|
D#|-------------------------|

[Bridge/ guitar flick] (after chorus 2:04 into song around there)
Em G5 D5 E5 D5 E5 F5
D#|-----------------------------------------|
A#|-----------------------------------------|
F#|--------------7-/-9---7-/-9--10-10-------|
C#|--2----5------7-/-9---7-/-9--10-10-------|
G#|--2----5------5-/-7---5-/-7--8--8--------|
D#|--0----3---------------------------------|

The flick is some bend on a eb note

The strumming patterns very through the song. enjoy

************************************

| / Slide up

************************************
Tunning: Standard (E A D G B e)
-----------------------------------------------------------------------------
ALWAYS – Saliva
-----------------------------------------------------------------------------

Tabbed by: Luis Munoz
Email: LamaGua@aol.com

Yo, whazzup? This is only my second tab EVER, but I think it’s 100% correct.
If you have any questions, just e-mail me.

Tuning: 1/2 step down and drop D (Db Ab Db Gb Bb eb from low to high)

INTRO AND VERSE 1 (clean)

eb|----------------------------------------|
Bb|----------------------------------------|
Gb|----------------------------------------| 4x
Db|------2---------7-------7---------7-----|
Ab|----2---2-----5---5---0---0-----7---7---|
Db|--2-------2/5-------0-------5/7---------|

PRE-CHORUS (with distortion)

eb|---------------------------------------------------------------|
Bb|---------------------------------------------------------------|
Gb|---------------------------------------------------------------|
Db|---10x-10x—10x—10x—10x—10x—10x—10x—9x—9x—9x—9x—9x—9x—9x—9x-----|
Ab|---10x-10x—10x—10x—10x—10x—10x—10x—9x—9x—9x—9x—9x—9x—9x—9x-----|
Db|---10x-10x—10x—10x—10x—10x—10x—10x—9x—9x—9x—9x—9x—9x—9x—9x-----|

eb|-----------------------------------------------------------|
Bb|-----------------------------------------------------------|
Gb|-----------------------------------------------------------|
Db|---7x—7x—7x—7x—7x—7x—7x—7x—/10—10-10-10-/12-12-12-12-\-----|
Ab|---7x—7x—7x—7x—7x—7x—7x—7x—/10-10-10-10-/12-12-12-12-\-----|
Db|---7x—7x—7x—7x—7x—7x—7x—7x—/10-10-10-10-/12-12-12-12-\-----|


CHORUS 1(with distortion)

eb|----------------------------------------------------------|
Bb|----------------------------------------------------------|
Gb|----------------------------------------------------------| 2x
Db|--2-2----x-x-x----5-5----x-x-x----7-7----x-x-x----7-7-----|
Ab|--2-2----x-x-x----5-5----x-x-x----0-0----x-x-x----7-7-----|
Db|--2-2----x-x-x----5-5----x-x-x----0-0----x-x-x----7-7-----|

Then,

eb|--------------------------------------|
Bb|--------------------------------------|
Gb|--------------------------------------| 2x
Db|--2-2-2---5-5-5---7-7-7---10-10-10----|
Ab|--2-2-2---5-5-5---0-0-0---10-10-10----|
Db|--2-2-2---5-5-5---0-0-0---10-10-10----|

VERSE 2

eb|----------------------------------------|
Bb|----------------------------------------|
Gb|----------------------------------------| 4x
Db|------2---------7-------7---------7-----|
Ab|----2---2-----5---5---0---0-----7---7---|
Db|--2-------2/5-------0-------5/7---------|

Or,

eb|------------------------------------------------|
Bb|------------------------------------------------|
Gb|------------------------------------------------| 4x
Db|--2x-2x—2x—--5x—5x—5x---7x—7x—7x---7x—7x—7x-----|
Ab|--2x-2x-2x---5x—5x—5x---0x-0x—0x---7x—7x—7x-----|
Db|--2x-2x-2x---5x-5x—5x---0x—0x—0x---7x—7x—7x-----|

(NOTE: Both of these are ways of playing Verse 2)

PRE-CHORUS (with distortion)

eb|---------------------------------------------------------------|
Bb|---------------------------------------------------------------|
Gb|---------------------------------------------------------------|
Db|---10x-10x—10x—10x—10x—10x—10x—10x—9x—9x—9x—9x—9x—9x—9x—9x-----|
Ab|---10x-10x—10x—10x—10x—10x—10x—10x—9x—9x—9x—9x—9x—9x—9x—9x-----|
Db|---10x-10x—10x—10x—10x—10x—10x—10x—9x—9x—9x—9x—9x—9x—9x—9x-----|

eb|-----------------------------------------------------------|
Bb|-----------------------------------------------------------|
Gb|-----------------------------------------------------------|
Db|---7x—7x—7x—7x—7x—7x—7x—7x—/10—10-10-10-/12-12-12-12-\-----|
Ab|---7x—7x—7x—7x—7x—7x—7x—7x—/10-10-10-10-/12-12-12-12-\-----|
Db|---7x—7x—7x—7x—7x—7x—7x—7x—/10-10-10-10-/12-12-12-12-\-----|

CHORUS 2(with distortion)

eb|----------------------------------------------------------|
Bb|----------------------------------------------------------|
Gb|----------------------------------------------------------| 2x
Db|--2-2----x-x-x----5-5----x-x-x----7-7----x-x-x----7-7-----|
Ab|--2-2----x-x-x----5-5----x-x-x----0-0----x-x-x----7-7-----|
Db|--2-2----x-x-x----5-5----x-x-x----0-0----x-x-x----7-7-----|

Then,

eb|--------------------------------------|
Bb|--------------------------------------|
Gb|--------------------------------------| 2 times
Db|--2-2-2---5-5-5---7-7-7---10-10-10----|
Ab|--2-2-2---5-5-5---0-0-0---10-10-10----|
Db|--2-2-2---5-5-5---0-0-0---10-10-10----|

Then,

eb|-----------------------------------------------------------------|
Bb|-----------------------------------------------------------------|
Gb|-----------------------------------------------------------------|
Db|--2-2----x-x-x----5-5----x-x-x----7-7----x-x-x---/10-10-10-10----|
Ab|--2-2----x-x-x----5-5----x-x-x----0-0----x-x-x---/10-10-10-10----|
Db|--2-2----x-x-x----5-5----x-x-x----0-0----x-x-x---/10-10-10-10----|

BRIDGE

eb|-------------------------------------|
Bb|-------------------------------------|
Gb|-------------------------------------|
Db|--7-7-7-7-7-7-7-7-5-5-5-5-5-5-5-5—---|
Ab|--7-7-7-7-7-7-7-7-5-5-5-5-5-5-5-5—---|
Db|--7-7-7-7-7-7-7-7-5-5-5-5-5-5-5-5—---|

Then,

eb|---------------------------------|
Bb|---------------------------------|
Gb|---------------------------------| 2x
Db|--0h2-2-2---0h2-2-2---3-3-3-3----|
Ab|--0h2-2-2---0h2-2-2---3-3-3-3----|
Db|--0h2-2-2---0h2-2-2---3-3-3-3----|

Then,

eb|-------------------------------------|
Bb|-------------------------------------|
Gb|-------------------------------------|
Db|--7-7-7-7-7-7-7-7-5-5-5-5-5-5-5-5—---|
Ab|--7-7-7-7-7-7-7-7-5-5-5-5-5-5-5-5—---|
Db|--7-7-7-7-7-7-7-7-5-5-5-5-5-5-5-5—---|

Then,

eb|---------------------------------|
Bb|---------------------------------|
Gb|---------------------------------| 2x
Db|--0h2-2-2---0h2-2-2---3-3-3-3----|
Ab|--0h2-2-2---0h2-2-2---3-3-3-3----|
Db|--0h2-2-2---0h2-2-2---3-3-3-3----|

Then,

eb|-----------------------------------------------|
Bb|-----------------------------------------------|
Gb|-----------------------------------------------|
Db|--7-7-7-7-7-7-7-7-/10-10-10-10-/12-12-12-12----|
Ab|--7-7-7-7-7-7-7-7-/10-10-10-10-/12-12-12-12----|
Db|--7-7-7-7-7-7-7-7-/10-10-10-10-/12-12-12-12----|


VERSE 3

eb|----------------------------------------|
Bb|----------------------------------------|
Gb|----------------------------------------| 4x
Db|------2---------7-------7---------7-----|
Ab|----2---2-----5---5---0---0-----7---7---|
Db|--2-------2/5-------0-------5/7---------|

OUTRO

eb|----------------------------------------------------------|
Bb|----------------------------------------------------------|
Gb|----------------------------------------------------------| 2x
Db|--2-2----x-x-x----5-5----x-x-x----7-7----x-x-x----7-7-----|
Ab|--2-2----x-x-x----5-5----x-x-x----0-0----x-x-x----7-7-----|
Db|--2-2----x-x-x----5-5----x-x-x----0-0----x-x-x----7-7-----|

Then,

eb|--------------------------------------|
Bb|--------------------------------------|
Gb|--------------------------------------| 6x
Db|--2-2-2---5-5-5---7-7-7---10-10-10----|
Ab|--2-2-2---5-5-5---0-0-0---10-10-10----|
Db|--2-2-2---5-5-5---0-0-0---10-10-10----|

Then,

eb|------------------------------------------------------------|
Bb|------------------------------------------------------------|
Gb|-------------------------------------------9~~--------------|
Db|--2-2----x-x-x----5-5----x-x-x----7-7---x—-7~~--------------|
Ab|--2-2----x-x-x----5-5----x-x-x----0-0---x—-7~~--------------|
Db|--2-2----x-x-x----5-5----x-x-x----0-0---x—-7~~--------------|


| / slide up
| \ slide down
| x Mute note
| h hammer-on
| ~ let ring

============================================================================
Tunning: Standard (E A D G B e)
Always - Saliva

Intro

Guitar 1
e---------------------------|----------------------------|
B---------------------------|--5----5--------------------|
G---------------------------|----------------------------|
D---------------------------|----------------------------|
A---------------------------|----------------------------|
E---------------------------|----------------------------|
| I Hear A Voice Say Don't It's Telling Me All The Things |
| Be So Blind U Would Probably Hind. |
| |
Guitar 2 |
e---------------------------|----------------------------|
B---------------------------|----------------------------|
G---------------------------|----------------------------|
D—-----2----5----0----7-----|—-----2----5----0----7------|
A-----2-2—-5-5—-0-0—-7—7----|-----2-2—-5-5—-0-0—-7—7-----|
E—---0----3----0----5-------|—---0----3----0----5--------|

Guitar 1
e---------------------------|----------------------------|
B---------------------------|--5----5--------------------|
G---------------------------|----------------------------|
D---------------------------|----------------------------|
A---------------------------|----------------------------|
E---------------------------|----------------------------|
| Am I Your One And Only Am I the reason you breathe |
| Desire or am I the reason you cry. |
| |
Guitar 2 |
e---------------------------|----------------------------|
B---------------------------|----------------------------|
G---------------------------|----------------------------|
D—-----2----5----0----7-----|—-----2----5----0----7------|
A-----2-2—-5-5—-0-0—-7—7----|-----2-2—-5-5—-0-0—-7—7-----|
E—---0----3----0----5-------|—---0----3----0----5--------|

Pre-Chorus
Guitar 1
e-3-----------|2-----2-----2----|-3---3---3---3---|--5-----5-----7-----7-|
B-3-----------|---5-----5-----5-|-3-5---5---5---5-|-----5-----5-----5---5|
G-0-----------|-----------------|-0---------------|----------------------|
D-------------|-----------------|-----------------|----------------------|
A-------------|-----------------|-----------------|----------------------|
E-------------|-----------------|-----------------|----------------------|
| Always Always Always Always Always Always I Just Can't Live |
| Without You |
| |
Guitar 2 |
e-----------------|-----------------|-----------------|-----------------|
B-----------------|-----------------|-----------------|-----------------|
G-----------------|-----------------|-----------------|-----------------|
D-2-2-2-2-2-2-2-2-|-5-5-5-5-5-5-5-5-|-0-0-0-0-0-0-0-0-|-7-7-7-7-7-7-7-7-|
A-2-2-2-2-2-2-2-2-|-5-5-5-5-5-5-5-5-|-0-0-0-0-0-0-0-0-|-7-7-7-7-7-7-7-7-|
E-0-0-0-0-0-0-0-0-|-5-5-5-5-5-5-5-5-|-0-0-0-0-0-0-0-0-|-5-5-5-5-5-5-5-5-|

Chorus (Both Guitars)

e-------------|-------------|-------------|-------------|
B-------------|-------------|-------------|-------------|
G-------------|-------------|-------------|-------------|
D-----2-2-----|-----5-5-----|-----0-0-----|-----7-7-----|
A-----2-2-----|-----5-5-----|-----0-0-----|-----7-7-----|
E-----0-0-----|-----3-3-----|-----0-0-----|-----5-5-----|
I Love U I Hate U I Can't Live Around U

e-------------|-------------|-------------|-------------|
B-------------|-------------|-------------|-------------|
G-------------|-------------|-------------|-------------|
D-----2-2-----|-----5-5-----|-----0-0-----|-----7-7-----|
A-----2-2-----|-----5-5-----|-----0-0-----|-----7-7-----|
E-----0-0-----|-----3-3-----|-----0-0-----|-----5-5-----|
I breathe you I taste you I cant live without you

e---------------------------------------|
B---------------------------------------|
G---------------------------------------|
D-2-2-2-2-|-5-5-5-5-|-0-0-0-0-|-7-7-7-7-|
A-2-2-2-2-|-5-5-5-5-|-0-0-0-0-|-7-7-7-7-|
E-0-0-0-0-|-3-3-3-3-|-0-0-0-0-|-5-5-5-5-|
I just can't take anymore | I guess that I'm out the door
Its like a silencer | and now I'm done with you.

e-0-2-3--0-2-0--0-2-0--3-2-0-|-0-2-3--0-2-0--0-2-0--3-2-0-|
B----------------------------|----------------------------|
G----------------------------|----------------------------|
D----------------------------|----------------------------|
A----------------------------|----------------------------|
E----------------------------|----------------------------|
(Done with you) (Done with you)
(Done with you) (Done with you)

Verse

Guitar 1
e---------------------------|---------------------------------|
B---------------------------|--5----5-------------------------|
G---------------------------|---------------------------------|
D---------------------------|---------------------------------|
A---------------------------|---------------------------------|
E---------------------------|---------------------------------|
|
|
Guitar 2 |
e---------------------------|----------------------------|
B---------------------------|----------------------------|
G---------------------------|----------------------------|
D—-----2----5----0----7-----|—-----2----5----0----7------|
A-----2-2—-5-5—-0-0—-7—7----|-----2-2—-5-5—-0-0—-7—7-----|
E—---0----3----0----5-------|—---0----3----0----5--------|

Guitar 1
e---------------------------|---------------------------------|
B---------------------------|--5----5-------------------------|
G---------------------------|---------------------------------|
D---------------------------|---------------------------------|
A---------------------------|---------------------------------|
E---------------------------|---------------------------------|
|
|
Guitar 2 |
e---------------------------|----------------------------|
B---------------------------|----------------------------|
G---------------------------|----------------------------|
D—-----2----5----0----7-----|—-----2----5----0----7------|
A-----2-2—-5-5—-0-0—-7—7----|-----2-2—-5-5—-0-0—-7—7-----|
E—---0----3----0----5-------|—---0----3----0----5--------|

Pre-Chorus
Guitar 1
e-3-----------|2-----2-----2----|-3---3---3---3---|--5-----5-----7-----7-|
B-3-----------|---5-----5-----5-|-3-5---5---5---5-|-----5-----5-----5---5|
G-0-----------|-----------------|-0---------------|----------------------|
D-------------|-----------------|-----------------|----------------------|
A-------------|-----------------|-----------------|----------------------|
E-------------|-----------------|-----------------|----------------------|
| Always Always Always Always Always Always I Just Can't Live |
| Without You |
| |
Guitar 2 |
e-----------------|-----------------|-----------------|-----------------|
B-----------------|-----------------|-----------------|-----------------|
G-----------------|-----------------|-----------------|-----------------|
D-2-2-2-2-2-2-2-2-|-5-5-5-5-5-5-5-5-|-0-0-0-0-0-0-0-0-|-7-7-7-7-7-7-7-7-|
A-2-2-2-2-2-2-2-2-|-5-5-5-5-5-5-5-5-|-0-0-0-0-0-0-0-0-|-7-7-7-7-7-7-7-7-|
E-0-0-0-0-0-0-0-0-|-5-5-5-5-5-5-5-5-|-0-0-0-0-0-0-0-0-|-5-5-5-5-5-5-5-5-|

Chorus (Both Guitars)

e-------------|-------------|-------------|-------------|
B-------------|-------------|-------------|-------------|
G-------------|-------------|-------------|-------------|
D-----2-2-----|-----5-5-----|-----0-0-----|-----7-7-----|
A-----2-2-----|-----5-5-----|-----0-0-----|-----7-7-----|
E-----0-0-----|-----3-3-----|-----0-0-----|-----5-5-----|
I Love U I Hate U I Can't Live Around U

e-------------|-------------|-------------|-------------|
B-------------|-------------|-------------|-------------|
G-------------|-------------|-------------|-------------|
D-----2-2-----|-----5-5-----|-----0-0-----|-----7-7-----|
A-----2-2-----|-----5-5-----|-----0-0-----|-----7-7-----|
E-----0-0-----|-----3-3-----|-----0-0-----|-----5-5-----|
I breathe you I taste you I cant live without you


e---------------------------------------|
B---------------------------------------|
G---------------------------------------|
D-2-2-2-2-|-5-5-5-5-|-0-0-0-0-|-7-7-7-7-|
A-2-2-2-2-|-5-5-5-5-|-0-0-0-0-|-7-7-7-7-|
E-0-0-0-0-|-3-3-3-3-|-0-0-0-0-|-5-5-5-5-|
I just can't take anymore | I guess that I'm out the door
Its like a silencer | and now I'm done with you.

I love you I cant live
I hate you around you I left my head around your heart
|--------------------|------------------|---------------------------------|
|--------------------|------------------|---------------------------------|
|--------------------|------------------|---------------------------------|
|-2-2--xx--x5-5--xx-x|0-0--xx--x7-7-7-7-|-7-7-7-7-7-7-7-7-5-5-5-5-5-5-5-5-|
|-2-2--xx--x5-5--xx-x|0-0--xx--x7-7-7-7-|-7-7-7-7-7-7-7-7-5-5-5-5-5-5-5-5-|
|-0-0--xx—-x3-3--xx-x|0-0--xx—-x5-5-5-5-|-7-7-7-7-7-7-7-7-5-5-5-5-5-5-5-5-|

Bridge
Guitar 1
|--------------------------------------|---------------------------------|
|--------------------------------------|---------------------------------|
|--------------------------------------|---------------------------------|
|--4---4--4-5--7--4---4--4--2--0-------|---------------------------------|
|-----------------------------------2--|---------------------------------|
|--------------------------------------|---------------------------------|
| | ,Why would you tear |
| | |
Guitar 2 | My world apart |
|--------------------------------------|---------------------------------|
|--------------------------------------|---------------------------------|
|--------------------------------------|---------------------------------|
|-0-2-22—-0-2-22--3--0-2-22—-0-2-22--3-|-7-7-7-7-7-7-7-7-5-5-5-5-5-5-5-5-|
|-0-2-22—-0-2-22--3—-0-2-22--0-2-22--3-|-7-7-7-7-7-7-7-7-5-5-5-5-5-5-5-5-|
|-0-2-22—-0-2-22--3—-0-2-22—-0-2-22--3-|-7-7-7-7-7-7-7-7-5-5-5-5-5-5-5-5-|

Guitar 1
|--------------------------------------|
|--------------------------------------|
|-8-—8-—8---8--------7-5-7-5-----------|
|------------------------------7-------|
|--------------------------------------|
|--------------------------------------|
| |
Guitar 2 |
|--------------------------------------|
|--------------------------------------|
|--------------------------------------|
|-0-2-22—-0-2-22--3--0-2-22--0-2-22--3-|
|-0-2-22—-0-2-22--3--0-2-22--0-2-22--3-|
|-0-2-22—-0-2-22--3—-0-2-22--0-2-22--3-|

Both Guitars
always always always always
|-----------------|-------------------------|
|-----------------|-------------------------|
|-----------------|-------------------------|
|-7-7-7-7-7-7-7-7-|-10-10-10-10-12-12-12-12-|
|-7-7-7-7-7-7-7-7-|-10-10-10-10-12-12-12-12-|
|-7-7-7-7-7-7-7-7-|-10-10-10-10-12-12-12-12-|

Verse
Guitar 1
e---------------------------|---------------------------------|
B---------------------------|--5----5-------------------------|
G---------------------------|---------------------------------|
D---------------------------|---------------------------------|
A---------------------------|---------------------------------|
E---------------------------|---------------------------------|
|
|
Guitar 2 |
e---------------------------|----------------------------|
B---------------------------|----------------------------|
G---------------------------|----------------------------|
D—-----2----5----0----7-----|—-----2----5----0----7------|
A-----2-2—-5-5—-0-0—-7—7----|-----2-2—-5-5—-0-0—-7—7-----|
E—---0----3----0----5-------|—---0----3----0----5--------|

Guitar 1
e---------------------------|---------------------------------|
B---------------------------|--5----5-------------------------|
G---------------------------|---------------------------------|
D---------------------------|---------------------------------|
A---------------------------|---------------------------------|
E---------------------------|---------------------------------|
|
|
Guitar 2 |
e---------------------------|----------------------------|
B---------------------------|----------------------------|
G---------------------------|----------------------------|
D—-----2----5----0----7-----|—-----2----5----0----7------|
A-----2-2—-5-5—-0-0—-7—7----|-----2-2—-5-5—-0-0—-7—7-----|
E—---0----3----0----5-------|—---0----3----0----5--------|

Chorus

e-------------|-------------|-------------|-------------|
B-------------|-------------|-------------|-------------|
G-------------|-------------|-------------|-------------|
D-----2-2-----|-----5-5-----|-----0-0-----|-----7-7-----|
A-----2-2-----|-----5-5-----|-----0-0-----|-----7-7-----|
E-----0-0-----|-----3-3-----|-----0-0-----|-----5-5-----|
I Love U I Hate U I Can't Live Around U

e-------------|-------------|-------------|-------------|
B-------------|-------------|-------------|-------------|
G-------------|-------------|-------------|-------------|
D-----2-2-----|-----5-5-----|-----0-0-----|-----7-7-----|
A-----2-2-----|-----5-5-----|-----0-0-----|-----7-7-----|
E-----0-0-----|-----3-3-----|-----0-0-----|-----5-5-----|
I breathe you I taste you I cant live without you

e----------------------------------------------------------------------------|
B----------------------------------------------------------------------------|
G----------------------------------------------------------------------------|
D-2-2-2-2-|-5-5-5-5-|-0-0-0-0-|-7-7-7-7--2-2-2-2-|-5-5-5-5-|-0-0-0-0-|-7-7-7-|
A-2-2-2-2-|-5-5-5-5-|-0-0-0-0-|-7-7-7-7--2-2-2-2-|-5-5-5-5-|-0-0-0-0-|-7-7-7-|
E-0-0-0-0-|-3-3-3-3-|-0-0-0-0-|-5-5-5-5--0-0-0-0-|-3-3-3-3-|-0-0-0-0-|-5-5-5-|

I just can't take anymore | I guess that I'm out the door
Its like a silencer | and now I'm done with you.

|--------------------|-------------------|------2-3--------2-3-|
|--------------------|-------------------|-5----------5--------|
|--------------------|-------------------|---0----------0------|
|--------------------|-------------------|---------------------|
|--------------------|-------------------|---------------------|
| always always always always |
|--------------------|-------------------|---------------------|
|--------------------|-------------------|---------------------|
|--------------------|-------------------|---------------------|
|-2-2-------5-5------|0-0-------7--------|---7------------7----|
|-2-2-------5-5------|0-0-------7--------|---7------------7----|
|-2-2-------5-5------|0-0-------7--------|---7------------7----|

Rock On People!
Song info
Always
Saliva
2001
  • Rock
  • Hard Rock
  • Nu Metal
Similar songs
Valley Of The Kings - Blue Murder
Return to Fantasy - Uriah Heep
Control - Puddle of Mudd
Ride On - AC/DC
Sick Of Drugs - The Wildhearts

Hi! Hope you enjoy backing track experience.
If you want to help us in the development of the project, feel free to donate!