Denim And Leather - Saxon
00:00 / 00:00
Tabs and lyrics
Tunning: Standard (E A D G B e)
DENIM AND LEATHER
As recorded by Saxon
(From the 1984 Album DENIM AND LEATHER)

Transcribed by Rich666


Music by saxon

Gtr I (E A D G B E) - 'Untitled'
Gtr II (E A D G B E) - 'Untitled'


[Verse]

Q=100
A5 C5
3/4
Gtrs I, II
E E S S E E E S S E E E S S E E Q E Q 6x
||----------------|-----------------|------------||
||o---------------|-----------------|-----------o||
||----------2-----|-----2---------2-|------------||
||--2-2-------2-2-|-------2-2-------|---5----5---||
||o-0-0-3h4---0-0-|-3h4---0-0-3h4---|-0-3--0-3--o||
||----------------|-----------------|------------||


[Chorus]

G5A5 C5D5 C5 A5 C5D5
E E E E E E E E E Q S S E E E E E E E E E E Q Q E E Q
||--------------|----------------|-------------|------------|---------------||
||o-------------|----------------|-------------|------------|--------------o||
||--------------|----------------|-----------0-|-------0----|---------------||
||--------5-7---|-5-5-(5)--------|---------2---|-----0---2--|-(2)----5-7----||
||o-5-7---3-5---|-3-3-(3)-2--3p2-|-0-0-2-3-----|-3-2-----0--|-(0)----3-5---o||
||--3-5---------|----------------|-------------|------------|---------------||


[Verse]

A5 C5
E E S S E E E S S E E E S S E E Q E Q 6x
||----------------|-----------------|------------||
||o---------------|-----------------|-----------o||
||----------2-----|-----2---------2-|------------||
||--2-2-------2-2-|-------2-2-------|---5----5---||
||o-0-0-3h4---0-0-|-3h4---0-0-3h4---|-0-3--0-3--o||
||----------------|-----------------|------------||


[Chorus]

G5A5 C5D5 C5 A5 C5D5
E E E E E E E E E Q S S E E E E E E E E E E Q Q E E Q
||--------------|----------------|-------------|------------|---------------||
||o-------------|----------------|-------------|------------|--------------o||
||--------------|----------------|-----------0-|-------0----|---------------||
||--------5-7---|-5-5-(5)--------|---------2---|-----0---2--|-(2)----5-7----||
||o-5-7---3-5---|-3-3-(3)-2--3p2-|-0-0-2-3-----|-3-2-----0--|-(0)----3-5---o||
||--3-5---------|----------------|-------------|------------|---------------||


[Verse]

A5 C5
E E S S E E E S S E E E S S E E Q E Q 6x
||----------------|-----------------|------------||
||o---------------|-----------------|-----------o||
||----------2-----|-----2---------2-|------------||
||--2-2-------2-2-|-------2-2-------|---5----5---||
||o-0-0-3h4---0-0-|-3h4---0-0-3h4---|-0-3--0-3--o||
||----------------|-----------------|------------||


[Chorus]

G5A5 C5D5 C5 A5 C5D5
E E E E E E E E E Q S S E E E E E E E E E E Q Q E E Q
||--------------|----------------|-------------|------------|---------------||
||o-------------|----------------|-------------|------------|--------------o||
||--------------|----------------|-----------0-|-------0----|---------------||
||--------5-7---|-5-5-(5)--------|---------2---|-----0---2--|-(2)----5-7----||
||o-5-7---3-5---|-3-3-(3)-2--3p2-|-0-0-2-3-----|-3-2-----0--|-(0)----3-5---o||
||--3-5---------|----------------|-------------|------------|---------------||


[Guitar Solo]

A5 C5
Gtr I
E E S S E E E S S E E E S S E E Q E Q
|---------------------------|-----------------------------|--------------------|
|---------------------------|-----------------------------|--------------------|
|-----------------2---------|---------2-----------------2-|--------------------|
|--2----2------------2----2-|------------2----2-----------|-----5-------5------|
|--0----0--3h===4----0----0-|--3h===4----0----0--3h===4---|--0--3-----0-3------|
|---------------------------|-----------------------------|--------------------|
|
| Gtr II
| ~~~~~ ~~~~~ ~~~~~
| Q Q Q Q Q Q E H E
|---------------------------|-----------------------------|--------------------|
|-20b22---20b22-----20b22---|-20b22-----20b22---20b22-----|-17-----------------|
|---------------------------|-----------------------------|----19b21r=====(19)-|
|---------------------------|-----------------------------|--------------------|
|---------------------------|-----------------------------|--------------------|
|---------------------------|-----------------------------|--------------------|


A5 C5
E E S S E E E S S E E E S S E E Q E Q
|--------------------------------|-----------------------------------|------------------------|
|--------------------------------|-----------------------------------|------------------------|
|---------------2----------------|--------2------------------------2-|------------------------|
|---2---2-------------2-----2----|--------------2-----2--------------|-----5--------5---------|
|---0---0--3h4--------0-----0----|--3h=4--------0-----0-----3h===4---|--0--3------0-3---------|
|--------------------------------|-----------------------------------|------------------------|
|
| ~~
| +E E E S S S S S S S S S S S S S S Q E Q Q S S
|--------------------------------|-----------------------------------|-17---------------------|
|--------------------------------|-----------------------------------|----20b22---------------|
|-(19)-17-19---19-19-19-19-19-19-|-19-19-19-19-19-19-19-19-19b21-----|-----------19---(19)-17-|
|--------------------------------|-----------------------------------|------------------------|
|--------------------------------|-----------------------------------|------------------------|
|--------------------------------|-----------------------------------|------------------------|


A5 C5
E E S S E E E S S E E E S S E E Q E Q
|-------------------|-----------------------|-------------------|
|-------------------|-----------------------|-------------------|
|-------------2-----|--------2------------2-|-------------------|
|--2-2----------2-2-|----------2----2-------|------5-----5------|
|--0-0--3h=4----0-0-|--3h=4----0----0-3h4---|--0---3--0--3------|
|-------------------|-----------------------|-------------------|
|
| ~~ ~~
| Q S S Q E S S E H +H Q
|-------------------|-----------------------|-------------------|
|-------------------|-----------------------|-------------------|
|------17-19-19-----|-19-17-19-7b9==========|=(7)r------(7)pb9r=|
|-19----------------|-----------------------|-------------------|
|-------------------|-----------------------|-------------------|
|-------------------|-----------------------|-------------------|


A5 C5
E E S S E E E S S E E E S S E E Q E Q
|-----------------------|---------------------------|----------------------|
|-----------------------|---------------------------|----------------------|
|-----------2-----------|-----2---------------2-----|----------------------|
|-2-2-----------2-2-----|---------2---2-------------|-----5-----------5----|
|-0-0---3h4-----0-0-----|-3h4-----0---0-3h=4--------|-0---3-------0---3----|
|-----------------------|---------------------------|----------------------|
|
| E S E E Q +S S E E Q +E +S S S S S S S S S Q
|-----------------------|---------------------------|----------------------|
|-----------------------|---------------------------|----------------------|
|---5h7---5-------------|-5h7---5-------------------|----------------------|
|-7-----------7-----(7)-|-----------7-----(7)---(7)-|-7-5-------------7----|
|-----------------------|---------------------------|-----7-6-5-3---5------|
|-----------------------|---------------------------|-------------5--------|


A5 C5
E E S S E E E S S E E E S S E E Q E Q
|-------------------------|--------------------------|--------------|
|-------------------------|--------------------------|--------------|
|---------------2---------|---------2--------------2-|--------------|
|--2----2----------2----2-|------------2--2----------|----5------5--|
|--0----0--3h4-----0----0-|--3h===4----0--0----3h4---|--0-3----0-3--|
|-------------------------|--------------------------|--------------|
|
| ~~
| Q E E Q Q E Q E Q H
|--------------17---------|-----------20-------------|--------------|
|---------17------20b22---|-20b22--------20b22-------|-17-----------|
|-19b21-------------------|--------------------------|------19------|
|-------------------------|--------------------------|--------------|
|-------------------------|--------------------------|--------------|
|-------------------------|--------------------------|--------------|


A5 C5
E E S S E E E S S E E E S S E E Q E Q
|---------------------------|-------------------------|---------------------|
|---------------------------|-------------------------|---------------------|
|-----------------2---------|---------2-------------2-|---------------------|
|--2----2------------2----2-|-----------2-2-----------|-------5-------5-----|
|--0----0--3h===4----0----0-|--3h===4---0-0--3h===4---|--0----3----0--3-----|
|---------------------------|-------------------------|---------------------|
|
| Q Q Q H Q Q Q Q
|-22b24---22b24-----22b24---|-22b24r==================|=====================|
|---------------------------|---------------20b22-----|-20b22---17----------|
|---------------------------|-------------------------|--------------19b21--|
|---------------------------|-------------------------|---------------------|
|---------------------------|-------------------------|---------------------|
|---------------------------|-------------------------|---------------------|


G5 A5 C5D5 C5
E E E E E E E E E Q S S E E E E E E
|----------------------|---------------------|-----------------------|
|----------------------|---------------------|-----------------------|
|----------------------|---------------------|---------------------0-|
|-----------5--7-------|-5---5-(5)-----------|----------------2------|
|--5----7---3--5-------|-3---3-(3)-2-----3p2-|--0----0--2--3---------|
|--3----5--------------|---------------------|-----------------------|
|
| H S S E H E E Q E E Q
|----------------------|---------------------|------------17---------|
|----------------------|---------------------|---------17----20b22---|
|-19b21-------19-17-19-|-7b9r========(7)-----|-19b21-----------------|
|----------------------|-----------------7---|-----------------------|
|----------------------|---------------------|-----------------------|
|----------------------|---------------------|-----------------------|


A5 C5D5
E E E E Q Q E E Q
|-------------------------------------|----------------|
|-------------------------------------|----------------|
|--------------------0----------------|----------------|
|--------------0-----------2----------|-(2)-------5-7--|
|--3-----2-----------------0----------|-(0)-------3-5--|
|-------------------------------------|----------------|
|
| ~~
| E S S S S S S S S S S E E H
|-------------------------------------|----------------|
|-------------------------------------|----------------|
|-19b21r17----19-17-------------------|----------------|
|----------19-------19-18-17-19-18-17-|----------------|
|-------------------------------------|-----19-19------|
|-------------------------------------|----------------|


G5 A5 C5 D5 C5
E E E E E E E E E Q S S
|-------------------------------|-------------------------|
|-------------------------------|-------------------------|
|-------------------------------|-------------------------|
|-----------------5------7------|--5----5--(5)------------|
|--5-----7--------3------5------|--3----3--(3)--2-----3p2-|
|--3-----5----------------------|-------------------------|
|
| E Q +E E +E Q E E Q
|-------------------------------|-------------------------|
|-20b22-20b22---(20)b22-17-(17)-|-------------------------|
|-------------------------------|-19b21r==(19)-17-7b9-----|
|-------------------------------|-------------------------|
|-------------------------------|-------------------------|
|-------------------------------|-------------------------|


A5 C5D5
E E E E E E E E E E Q Q E E Q
|-------------------------|---------------------------|------------------------|
|-------------------------|---------------------------|------------------------|
|------------------0------|-------------------0-------|------------------------|
|-------------2-----------|--------------0-------2----|-(2)------5--7----------|
|--0----0-2-3-------------|--3-----2-------------0----|-(0)------3--5----------|
|-------------------------|---------------------------|------------------------|
|
| +Q Q E S +S E S S Q E E H E E
|-------------------------|----------17---------------|------------------------|
|-------------------------|-------17----20b22---------|-20---------20----20----|
|-(7)b9---5---7b9r(7)-(7)-|-19b21---------------19-19-|-19b21------19b21-19b21-|
|-------------------------|---------------------------|------------------------|
|-------------------------|---------------------------|------------------------|
|-------------------------|---------------------------|------------------------|


[Verse]

A5 C5
Gtrs I, II
E E S S E E E S S E E E S S E E Q E Q 6x
||----------------|-----------------|------------||
||o---------------|-----------------|-----------o||
||----------2-----|-----2---------2-|------------||
||--2-2-------2-2-|-------2-2-------|---5----5---||
||o-0-0-3h4---0-0-|-3h4---0-0-3h4---|-0-3--0-3--o||
||----------------|-----------------|------------||


[Out-Chorus]

G5A5 C5D5 C5 A5 C5D5
E E E E E E E E E Q S S E E E E E E E E E E Q Q E E Q 5x
||--------------|----------------|-------------|------------|---------------||
||o-------------|----------------|-------------|------------|--------------o||
||--------------|----------------|-----------0-|-------0----|---------------||
||--------5-7---|-5-5-(5)--------|---------2---|-----0---2--|-(2)----5-7----||
||o-5-7---3-5---|-3-3-(3)-2--3p2-|-0-0-2-3-----|-3-2-----0--|-(0)----3-5---o||
||--3-5---------|----------------|-------------|------------|---------------||



Duration Legend
---------------
W - whole; H - half; Q - quarter; E - 8th; S - 16th; T - 32nd; X - 64th; a - acciaccatura
+ - note tied to previous; . - note dotted; .. - note double dotted
Uncapitalized letters represent notes that are staccato (1/2 duration)
Irregular groupings are notated above the duration line
Duration letters will always appear directly above the note/fret number it represents the
duration for. Duration letters with no fret number below them represent rests. Multi-
bar rests are notated in the form Wxn, where n is the number of bars to rest for. Low
melody durations appear below the staff

Tablature Legend
----------------
h - hammer-on
p - pull-off
b - bend
pb - pre-bend
r - bend release (if no number after the r, then release immediately)
/\ - slide into or out of (from/to "nowhere")
s - legato slide
S - shift slide
- natural harmonic
[n] - artificial harmonic
n(n) - tapped harmonic
~ - vibrato
tr - trill
T - tap
TP - trem. picking
PM - palm muting
\n/ - tremolo bar dip; n = amount to dip
\n - tremolo bar down
n/ - tremolo bar up
/n\ - tremolo bar inverted dip
= - hold bend; also acts as connecting device for hammers/pulls
<> - volume swell (louder/softer)
x - on rhythm slash represents muted slash
o - on rhythm slash represents single note slash

Misc Legend
-----------
| - bar
|| - double bar
||o - repeat start
o|| - repeat end
*| - double bar (ending)
: - bar (freetime)
$ - Segno
& - Coda
Tempo markers - = BPM(8/16=s8/s16), where s8 = swing 8ths, s16 = swing 16ths
Song info
Denim And Leather
Saxon
2001
  • Rock
  • Hard Rock
  • Heavy Metal
Alternative tracks
Similar songs
Determined - Mudvayne
Street Of Dreams - Rainbow
No More Mr. Nice Guy - Alice Cooper
You Make Me Feel - Bonfire

Hi! Hope you enjoy backing track experience.
If you want to help us in the development of the project, feel free to donate!