Humanity - Scorpions
00:00 / 00:00
Tabs and lyrics
Tunning: Standard (E A D G B e)
GREAT AND EASY SONG BY THE SCORPIONS. REMEMBER TO TUNE YOUR GUITAR HALF-STEP DOWN.


[INTRO] (SOLO)

e|-------------------------|----------------------------|---------------|
B|-----------10-8-6h8p6----|-6/8--10--11--10-8-6h8p6----|-6/8--6--8-6-5-|
G|-7--9--10--------------7-|--------------------------7-|---------------|
D|-------------------------|----------------------------|---------------|
A|-------------------------|----------------------------|---------------|
E|-------------------------|----------------------------|---------------|

[Verse 1]

e|----5--------5--------5-|----5--------5--------5-|
B|-------6--------6-------|-------6--------6-------|
G|-7--------7--------7----|-7--------7--------7----|
D|------------------------|------------------------|
A|------------------------|------------------------|
E|------------------------|------------------------|
Humanity Auf widersehen

e|----6--------6--------6-|----6--------6--------6-|
B|-------6--------6-------|-------6--------6-------|
G|-7--------7--------7----|-7--------7--------7----|
D|------------------------|------------------------|
A|------------------------|------------------------|
E|------------------------|------------------------|
it’s time to say goodbye The party is over

e|----3--------3--------3-|----5--------5--------5-|
B|-------3--------3-------|-------2--------2-------|
G|-0--------0--------0----|-2--------2--------2----|
D|------------------------|------------------------|
A|------------------------|------------------------|
E|------------------------|------------------------|
as the laughter dies An angel cries

[Verse 2]

e|----5--------5--------5-|----5--------5--------5-|
B|-------6--------6-------|-------6--------6-------|
G|-7--------7--------7----|-7--------7--------7----|
D|------------------------|------------------------|
A|------------------------|------------------------|
E|------------------------|------------------------|
Humanity It´s au revoir to your

e|----6--------6--------6-|----6--------6--------6-|
B|-------6--------6-------|-------6--------6-------|
G|-7--------7--------7----|-7--------7--------7----|
D|------------------------|------------------------|
A|------------------------|------------------------|
E|------------------------|------------------------|
insanity You sold your soul to feed your

e|----3--------3--------3-|----5--------5--------5-|
B|-------3--------3-------|-------2--------2-------|
G|-0--------0--------0----|-2--------2--------2----|
D|------------------------|------------------------|
A|------------------------|------------------------|
E|------------------------|------------------------|
vanity, your fantasies, and

e|----5--------5--------5-|----5--------5--------5-|
B|-------6--------6-------|-------6--------6-------|
G|-7--------7--------7----|-7--------7--------7----|
D|------------------------|------------------------|
A|------------------------|------------------------|
E|------------------------|------------------------|
lies

[Chorus]

e|----------------|----------------|----------------|----------------|
B|----------------|----------------|----------------|----------------|
G|----------------|----------------|----------------|----------------|
D|-7---7---7-7-7--|-7---7---7-7-7--|-5---5---5-5-5--|-5---5---5-5-5--|
A|-5---5---5-5-5--|-5---5---5-5-5--|-5---5---5-5-5--|-5---5---5-5-5--|
E|-5---5---5-5-5--|-5---5---5-5-5--|-3---3---3-3-3--|-3---3---3-3-3--|
You’re a drop… Just a number… And you don’t… You don’t believe…

e|----------------|----------------|----------------|----------------|
B|----------------|----------------|----------------|----------------|
G|----------------|----------------|----------------|----------------|
D|-7---7---7-7-7--|-7---7---7-7-7--|-5---5---5-5-5--|-5---5---5-5-5--|
A|-5---5---5-5-5--|-5---5---5-5-5--|-5---5---5-5-5--|-5---5---5-5-5--|
E|-5---5---5-5-5--|-5---5---5-5-5--|-3---3---3-3-3--|-3---3---3-3-3--|
At the end of… You’re a needle… You signed and… And now you gotta…

e|----------------|----------------|----------------|---------|
B|----------------|----------------|----------------|---------|
G|-3-3-3-3--3-3-3-|-5-5-5-5--5-5-5-|-3-3-3-3--3-3-3-|-5-------|
D|-3-3-3-3--3-3-3-|-5-5-5-5--5-5-5-|-3-3-3-3--3-3-3-|-5-------|
A|-1-1-1-1--1-1-1-|-3-3-3-3--3-3-3-|-1-1-1-1--1-1-1-|-3-------|
E|----------------|----------------|----------------|---------|
Humanity Humanity

e|----------------------|----------------------|----------------------|
B|----------------------|----------------------|----------------------|
G|----------------------|----------------------|----------------------|
D|-7-7-7-7--7-7-7-7--6--|-7-7-7-7--7-7-7-7--6--|-7-7-7-7--7-7-7-7--6--|
A|-5-5-5-5--5-5-5-5--5--|-5-5-5-5--5-5-5-5--5--|-5-5-5-5--5-5-5-5--5--|
E|-5-5-5-5--5-5-5-5--4--|-5-5-5-5--5-5-5-5--4--|-5-5-5-5--5-5-5-5--4--|
Goodbye Goodbye

e|------------------|
B|------------------|
G|------------------|
D|-7-7-7-7--7-7-7-7-|
A|-5-5-5-5--5-5-5-5-|
E|-5-5-5-5--5-5-5-5-|

[Verse 3]

e|----5--------5--------5-|----5--------5--------5-|
B|-------6--------6-------|-------6--------6-------|
G|-7--------7--------7----|-7--------7--------7----|
D|------------------------|------------------------|
A|------------------------|------------------------|
E|------------------------|------------------------|
Be on your way Adios amigo there‘s a

e|----6--------6--------6-|----6--------6--------6-|
B|-------6--------6-------|-------6--------6-------|
G|-7--------7--------7----|-7--------7--------7----|
D|------------------------|------------------------|
A|------------------------|------------------------|
E|------------------------|------------------------|
price to pay For all the egotistic

e|----3--------3--------3-|----5--------5--------5-|
B|-------3--------3-------|-------2--------2-------|
G|-0--------0--------0----|-2--------2--------2----|
D|------------------------|------------------------|
A|------------------------|------------------------|
E|------------------------|------------------------|
games you played The world you made

e|----5--------5--------5-|----5--------5--------5-|
B|-------6--------6-------|-------6--------6-------|
G|-7--------7--------7----|-7--------7--------7----|
D|------------------------|------------------------|
A|------------------------|------------------------|
E|------------------------|------------------------|
is gone

[Chorus]

e|----------------|----------------|----------------|----------------|
B|----------------|----------------|----------------|----------------|
G|----------------|----------------|----------------|----------------|
D|-7---7---7-7-7--|-7---7---7-7-7--|-5---5---5-5-5--|-5---5---5-5-5--|
A|-5---5---5-5-5--|-5---5---5-5-5--|-5---5---5-5-5--|-5---5---5-5-5--|
E|-5---5---5-5-5--|-5---5---5-5-5--|-3---3---3-3-3--|-3---3---3-3-3--|
You’re a drop… Just a number… And you don’t… You don’t believe…

e|----------------|----------------|----------------|----------------|
B|----------------|----------------|----------------|----------------|
G|----------------|----------------|----------------|----------------|
D|-7---7---7-7-7--|-7---7---7-7-7--|-5---5---5-5-5--|-5---5---5-5-5--|
A|-5---5---5-5-5--|-5---5---5-5-5--|-5---5---5-5-5--|-5---5---5-5-5--|
E|-5---5---5-5-5--|-5---5---5-5-5--|-3---3---3-3-3--|-3---3---3-3-3--|
At the end of… You’re a needle… You signed and… And now you gotta…

e|----------------|----------------|----------------|---------|
B|----------------|----------------|----------------|---------|
G|-3-3-3-3--3-3-3-|-5-5-5-5--5-5-5-|-3-3-3-3--3-3-3-|-5-------|
D|-3-3-3-3--3-3-3-|-5-5-5-5--5-5-5-|-3-3-3-3--3-3-3-|-5-------|
A|-1-1-1-1--1-1-1-|-3-3-3-3--3-3-3-|-1-1-1-1--1-1-1-|-3-------|
E|----------------|----------------|----------------|---------|
Humanity Humanity

e|----------------------|----------------------|----------------------|
B|----------------------|----------------------|----------------------|
G|----------------------|----------------------|----------------------|
D|-7-7-7-7--7-7-7-7--6--|-7-7-7-7--7-7-7-7--6--|-7-7-7-7--7-7-7-7--6--|
A|-5-5-5-5--5-5-5-5--5--|-5-5-5-5--5-5-5-5--5--|-5-5-5-5--5-5-5-5--5--|
E|-5-5-5-5--5-5-5-5--4--|-5-5-5-5--5-5-5-5--4--|-5-5-5-5--5-5-5-5--4--|
Goodbye Goodbye

e|----------------------|
B|----------------------|
G|----------------------|
D|-7-7-7-7--7-7-7-7--6--|
A|-5-5-5-5--5-5-5-5--5--|
E|-5-5-5-5--5-5-5-5--4--|

[Interlude]

e|---------------------------------|---------------------------------|
B|---------------------------------|---------------------------------|
G|---------------------------------|---------------------------------|
D|-7-7-7-7-7-7-7-7-7-7-7-7-7-7-7-7-|-7-7-7-7-7-7-7-7-7-7-7-7-7-7-7-7-|
A|-5-5-5-5-5-5-5-5-5-5-5-5-5-5-5-5-|-5-5-5-5-5-5-5-5-5-5-5-5-5-5-5-5-|
E|---------------------------------|---------------------------------|
Run and hide there’s fire in the sky

e|---------------------------------|---------------------------------|
B|---------------------------------|---------------------------------|
G|---------------------------------|---------------------------------|
D|---------------------------------|---------------------------------|
A|-5-5-5-5-5-5-5-5-5-5-5-5-5-5-5-5-|-5-5-5-5-5-5-5-5-5-5-5-5-5-5-5-5-|
E|-3-3-3-3-3-3-3-3-3-3-3-3-3-3-3-3-|-3-3-3-3-3-3-3-3-3-3-3-3-3-3-3-3-|
Stay inside the water’s gonna

e|---------------------------------|---------------------------------|
B|---------------------------------|---------------------------------|
G|---------------------------------|---------------------------------|
D|-5-5-5-5-5-5-5-5-5-5-5-5-5-5-5-5-|-2-2-2-2-2-2-2-2-2-2-2-2-2-2-2-2-|
A|-3-3-3-3-3-3-3-3-3-3-3-3-3-3-3-3-|-0-0-0-0-0-0-0-0-0-0-0-0-0-0-0-0-|
E|---------------------------------|---------------------------------|
rise and pull you under

e|------------------------|------------------------|
B|------------------------|------------------------|
G|------------------------|------------------------|
D|-7--7--7--7--7--7--7--7-|-7--7--7--7--7--7--7--7-|
A|-5--5--5--5--5--5--5--5-|-5--5--5--5--5--5--5--5-|
E|------------------------|------------------------|
In your eyes I’m starring at the

e|------------------------|------------------------|
B|------------------------|------------------------|
G|------------------------|------------------------|
D|------------------------|------------------------|
A|-5--5--5--5--5--5--5--5-|-5--5--5--5--5--5--5--5-|
E|-3--3--3--3--3--3--3--3-|-3--3--3--3--3--3--3--3-|
end of time Nothing can change us

e|------------------------|------------------------|-------|
B|------------------------|------------------------|-------|
G|------------------------|------------------------|-------|
D|-5--5--5--5--5--5--5--5-|-2--2--2--2--2--2--2--2-|-3-----|
A|-3--3--3--3--3--3--3--3-|-0--0--0--0--0--0--0--0-|-1-----|
E|------------------------|------------------------|-------|
no one can save us from ourselves

[Solo]

e|------------|----------------------------------|-------------------|
B|------------|----------------------------------|-------------------|
G|----9--7----|-10-9h10p9/7--9--10--9—7--9--7----|-10-9h10p9/7-9--10-|
D|-7--------7-|--------------------------------8-|-------------------|
A|------------|----------------------------------|-------------------|
E|------------|----------------------------------|-------------------|

e|---------------------------------|-------------------------------------|
B|-8/10--8------8/10--8------------|----------------15/17-18-17-18-17-15-|
G|----------7------------6----7--9-|-14-15-14-12-14----------------------|
D|---------------------------------|-------------------------------------|
A|---------------------------------|-------------------------------------|
E|---------------------------------|-------------------------------------|

e|-17-13-15-13-------17-18-17-18-17-----|
B|-------------15-----------------------|
G|----------------14--------------------|
D|--------------------------------------|
A|--------------------------------------|
E|--------------------------------------|

[Chorus]

e|----------------|----------------|----------------|----------------|
B|----------------|----------------|----------------|----------------|
G|----------------|----------------|----------------|----------------|
D|-7---7---7-7-7--|-7---7---7-7-7--|-5---5---5-5-5--|-5---5---5-5-5--|
A|-5---5---5-5-5--|-5---5---5-5-5--|-5---5---5-5-5--|-5---5---5-5-5--|
E|-5---5---5-5-5--|-5---5---5-5-5--|-3---3---3-3-3--|-3---3---3-3-3--|
You’re a drop… Just a number… And you don’t… You don’t believe…

e|----------------|----------------|----------------|----------------|
B|----------------|----------------|----------------|----------------|
G|----------------|----------------|----------------|----------------|
D|-7---7---7-7-7--|-7---7---7-7-7--|-5---5---5-5-5--|-5---5---5-5-5--|
A|-5---5---5-5-5--|-5---5---5-5-5--|-5---5---5-5-5--|-5---5---5-5-5--|
E|-5---5---5-5-5--|-5---5---5-5-5--|-3---3---3-3-3--|-3---3---3-3-3--|
At the end of… You’re a needle… You signed and… And now you gotta…

e|----------------|----------------|----------------|----------------|
B|----------------|----------------|----------------|----------------|
G|-3-3-3-3--3-3-3-|-5-5-5-5--5-5-5-|-3-3-3-3--3-3-3-|-5-5-5-5--5-5-5-|
D|-3-3-3-3--3-3-3-|-5-5-5-5--5-5-5-|-3-3-3-3--3-3-3-|-5-5-5-5--5-5-5-|
A|-1-1-1-1--1-1-1-|-3-3-3-3--3-3-3-|-1-1-1-1--1-1-1-|-3-3-3-3--3-3-3-|
E|----------------|----------------|----------------|----------------|
Humanity Humanity

e|----------------|---------|
B|----------------|---------|
G|-3-3-3-3--3-3-3-|-5-------|
D|-3-3-3-3--3-3-3-|-5-------|
A|-1-1-1-1--1-1-1-|-3-------|
E|----------------|---------|
Humanity

e|----------------------|----------------------|----------------------|
B|----------------------|----------------------|----------------------|
G|----------------------|----------------------|----------------------|
D|-7-7-7-7--7-7-7-7--6--|-7-7-7-7--7-7-7-7--6--|-7-7-7-7--7-7-7-7--6--|
A|-5-5-5-5--5-5-5-5--5--|-5-5-5-5--5-5-5-5--5--|-5-5-5-5--5-5-5-5--5--|
E|-5-5-5-5--5-5-5-5--4--|-5-5-5-5--5-5-5-5--4--|-5-5-5-5--5-5-5-5--4--|
Goodbye Goodbye

e|----------------------|----------------------|----------------------|
B|----------------------|----------------------|----------------------|
G|----------------------|----------------------|----------------------|
D|-7-7-7-7--7-7-7-7--6--|-7-7-7-7--7-7-7-7--6--|-7-7-7-7--7-7-7-7--6--|
A|-5-5-5-5--5-5-5-5--5--|-5-5-5-5--5-5-5-5--5--|-5-5-5-5--5-5-5-5--5--|
E|-5-5-5-5--5-5-5-5--4--|-5-5-5-5--5-5-5-5--4--|-5-5-5-5--5-5-5-5--4--|
Goodbye

e|----------------------|------------------|
B|----------------------|------------------|
G|----------------------|------------------|
D|-7-7-7-7--7-7-7-7--6--|-7-7-7-7--7-7-7-7-|
A|-5-5-5-5--5-5-5-5--5--|-5-5-5-5--5-5-5-5-|
E|-5-5-5-5--5-5-5-5--4--|-5-5-5-5--5-5-5-5-|
Goodbye

**************************************

TAB EXPLANATION

h – hammer on
p – pull off
/ - slide

**************************************


LYRICS

Humanity
Auf wiedersehen
It's time to say goodbye
The party's over
As the laughter dies
An angel cries
Humanity
It's au revoir to your insanity
You sold your soul to feed your vanity
Your fantasies and lies

You're a drop in the rain
Just a number not a name
And you don't see it
You don't believe it
At the end of the day
You're a needle in the hay
You signed and sealed it
And now you gotta deal with it
Humanity
Humanity
Goodbye
Goodbye

Be on your way
Adiós amigo there's a price to pay
For all the egotistic games you played
The world you made
Is gone

You're a drop in the rain
Just a number not a name
And you don't see it
You don't believe it
At the end of the day
You're a needle in the hay
You signed and sealed it
And now you gotta deal with it
Humanity
Humanity
Goodbye
Goodbye

Run and hide there's fire in the sky
Stay inside
The water's gonna rise and pull you under
In your eyes I'm staring at the end of time
Nothing can change us
No one can save us from ourselves

You're a drop in the rain
Just a number not a name
And you don't see it
You don't believe it
At the end of the day
You're a needle in the hay
You signed and sealed it
Now you gotta deal with it
Humanity
Humanity
Humanity
Goodbye
Goodbye
Song info
Humanity
Scorpions
2001
  • Rock
  • Hard Rock
  • Pop Rock
Similar songs
Original Sin - INXS
Alors Regarde - Patrick Bruel
Ramblin Gamblin Man - Bob Seger
Why Georgia - John Mayer
The Ghost Of Tom Joad - Rage Against the Machine

Hi! Hope you enjoy backing track experience.
If you want to help us in the development of the project, feel free to donate!