Rock You Like A Hurricane - Scorpions
00:00 / 00:00
Tabs and lyrics
Tunning: Nashville (E A D G B E)
Scorpions - Rock You Like a Hurricane
Tabbed by: Matt

[Intro]

Riff A (also Chorus)
E|----------------------------|
B|----------------------------|
G|----------------------------|
D|-9-9-9----------------------|
A|-7-7-7--5-5--7-7--10--12-12-|
E|--------3-3--5-5--8---10-10-|


[Solo 1]

(over Riff A)
E|-0-0--0-0-0--0-0--0-0--0-0-0-0-|
B|-------------------------------|
G|-------------------------------| x3
D|-------------------------------|
A|-------------------------------|
E|-------------------------------|

E|-0-0--0-0-0--0-3p0--------------|
B|-------------------3p0----------|
G|-----------------------2p0------|
D|---------------------------2----|
A|-----------------------------3--|
E|--------------------------------|

E|--------15--------15--14h15p15-12-----------15---------17b19r17p15--17-|
B|-15b17-----15b17------------------15-15b17------15b17------------------|
G|-----------------------------------------------------------------------|
D|-----------------------------------------------------------------------|
A|-----------------------------------------------------------------------|
E|-----------------------------------------------------------------------|

E|-22b24--22b24--22b24-22b24-22p20-19p17-20p19-17p15-19p17-15h17p15p14-17b20-|
B|---------------------------------------------------------------------------|
G|---------------------------------------------------------------------------|
D|---------------------------------------------------------------------------|
A|---------------------------------------------------------------------------|
E|---------------------------------------------------------------------------|

E|-------12-------12-------12-------12-------12-------12-------12-|
B|-15b17----15b17----15b17----15b17----15b17----15b17----15b17----|
G|----------------------------------------------------------------|
D|----------------------------------------------------------------|
A|----------------------------------------------------------------|
E|----------------------------------------------------------------|

E|-15r12-------------------------------|
B|-------15r12-------------------------|
G|-------------14r12-------------------|
D|-------------------14r12-------------|
A|-------------------------14r12-------|
E|-------------------------------15-12-|


[Verse 1]

P.M..............................|
E||----------------------------------|
B||----------------------------------|
G||----------------------------------|
D||-5-5-5-9-9-9-9-9--5-5-5-9-9-7-7-7-|
A||-3-3-3-7-7-7-7-7--3-3-3-7-7-5-5-5-|
E||----------------------------------|

P.M..............................|
E|----------------------------------||
B|----------------------------------||
G|----------------------------------|| x4
D|-5-5-5-9-9-9-9-9--5-5-5-7-7-7-7-7-||
A|-3-3-3-7-7-7-7-7--3-3-3-5-5-5-5-5-||
E|----------------------------------||
| |
| |
|Guitar 2 |
E|-------------------------------<12>|
B|-----------------------------------| (this part is not on the repeats)
G|-----------------------------<7>---|
D|---------------------------<7>-----|
A|-----------------------------------|
E|-----------------------------------|


[Verse 2]

P.M..............................|
E||----------------------------------|
B||----------------------------------|
G||----------------------------------|
D||-5-5-5-9-9-9-9-9--5-5-5-9-9-7-7-7-|
A||-3-3-3-7-7-7-7-7--3-3-3-7-7-5-5-5-|
E||----------------------------------|

P.M..............................|
E|----------------------------------||
B|----------------------------------||
G|----------------------------------|| x2
D|-5-5-5-9-9-9-9-9--5-5-5-7-7-7-7-7-||
A|-3-3-3-7-7-7-7-7--3-3-3-5-5-5-5-5-||
E|----------------------------------||

E||----------------------------------|
B||----------------------------------|
G||----------------------------------|
D||-5----9----------5-----9---7------|
A||-3----7----------3-----7---5------|
E||----------------------------------|

E|----------------------------------||
B|----------------------------------||
G|----------------------------------|| x2
D|-5----9----------5-----7----------||
A|-3----7----------3-----5----------||
E|----------------------------------||



************************************

| h Hammer-on
| p Pull-off
| r Release
| <> Harmonics
| b Bend

************************************
Tunning: Standard (E A D G B e)
-------------------------------------------------------------------------------
Rock You Like A Hurricane - The Scorpions
-------------------------------------------------------------------------------
Tabbed by:Aaron Acosta
Email:LeperMessiah28@netscape.net

Tuning:Standard

opening riff:
e|------------------------------------------------|
B|------------------------------------------------|
G|------------------------------------------------|
D|-9-9-9-9/---------5-5-5--9-9-9-9/---------5-7-7-|
A|-7-7-7-7/-5-5-7-7-3-7-7--7-7-7-7/-5-5-7-7-3-5-5-|
E|----------3-3-5-5-----------------3-3-5-5-------|

intro solo:
e|---------0---0---0---------0---0---0---------7---7---7---------7---7---|
B|-5-5-5-5---5---5---5-5-5-5---5---5---5-5-5-5---5---5---5-5-5-5---5---5-|
G|-----------------------------------------------------------------------|
D|-----------------------------------------------------------------------|
A|-----------------------------------------------------------------------|
E|-----------------------------------------------------------------------|

e|5-7-5-------------------------|---15----15-15p14----------15----19-17---17~-|
B|------8-7-5-8-7-5-8-7-5-------|15^---17~---------17-15-15^---17~-----20-----|
G|------------------------7-5-7-|---------------------------------------------|
D|------------------------------|---------------------------------------------|
A|------------------------------|---------------------------------------------|
E|------------------------------|---------------------------------------------|

e|22^-22^-22^-22^-19-22-20-19-17-20-19-17-15-19-17-15-17-19-|
B|----------------------------------------------------------|
G|----------------------------------------------------------|
D|----------------------------------------------------------|
A|----------------------------------------------------------|
E|----------------------------------------------------------|

e|---12----12----12----12----12----12----|---------------------------------|
B|15^---15^---15^---15^---15^---15^---15^|12-13-15-13-12-------------------|
G|---------------------------------------|---------------14-12-11-14-12-11-|
D|---------------------------------------|---------------------------------|
A|---------------------------------------|---------------------------------|
E|---------------------------------------|---------------------------------|

e|------------|-------------------------------------------------------------|
G|------------|-----------------------------------------------------------|
D|14-12-14-12-|---------------------------------------------------------------|
A|------------|3-3-3-7-7-7-7-3-3-3-7-7-5-5-5-3-3-3-7-7-7-7-3-3-3-5-5-5-5------|
E|------------|---------------------------------------------------------------|
PM- - - - - - - - - - - - - - - - - - - - - - - - - - - - -

2nd time play
e|-------------------------------------------------|-------|this
B|-------------------------------------------------|-------|
G|-------------------------------------------------|-------|
D|5-5-5-9-9-9-9-5-5-5-9-9-7-7-7-5-5-5-9-9-9-9-5-5-5|-7-let-|
A|3-3-3-7-7-7-7-3-3-3-7-7-5-5-5-3-3-3-7-7-7-7-3-3-3|-5-ring|
E|-------------------------------------------------|-------|
PM- - - - - - - - - - - - - - - - - - - - - - - - -

play opening riff again

e|-----------------------------------------------------------|
B|-----------------------------------------------------------|
G|-----------------------------------------------------------|
D|-----------------------------------------------------------|
A|-3-3-3-7-7-7-7-3-3-3-7-7-5-5-5-3-3-3-7-7-7-7-3-3-3-5-5-5-5-|
E|-----------------------------------------------------------|
PM - - - - - - - - - - - - - - - - - - - - - - - - - - - - -

solo fill:
e|--------------------------------------------------|---|-12^-12-12-12-12-|
B|--------------------------------------------------|---|-----------------|
G|--------------------------------------------------|---|-----------------|
D|5-5-5-9-9-9-9-5-5-5-9-9-7-7-7-5-5-5-9-9-9-9-5-5-5-|-7-|-----------------|
A|3-3-3-7-7-7-7-3-3-3-7-7-5-5-5-3-3-3-7-7-7-7-3-3-3-|-5-|-----------------|
E|--------------------------------------------------|---|-----------------|

main solo: T T T
e|----------12-|---------17^-17^---|---------------------------------|
B|-15p12h15----|-17^-17^-----------|-17p15-17p15-17\p15-17p15-17\p15-|do
G|-------------|----------------14~|---------------------------------|this
D|-------------|-------------------|---------------------------------|a few
A|-------------|-------------------|---------------------------------|times
E|-------------|-------------------|---------------------------------|

Tremolo picking
e|--------------------------------(7)-(10)-(12)-(15)-18^-------|
B|---------------(8)-(10)-(8)-(10)-----------------------------|
G|--------(7)-(9)---------------------------------------19^-19~|
D|-(7)-(9)-----------------------------------------------------|
A|-------------------------------------------------------------|
E|-------------------------------------------------------------|

e|-------------------------------------|----------------------|
B|-15p14p12----15p14p12----15p14p12----|----------------------|
G|-15p14p12-14-15p14p12-14-15p14p12-14-|----------------12-14-|
D|----------14----------14----------14-|----------12-14-------|
A|-------------------------------------|-12-12-14-------------|
E|-------------------------------------|----------------------|

e|----------------------------------------------------------------22^-------|
B|-------------------------------------------------------20-22-22^---22^-22~|
G|-------------------------------12-14-------14-16-19-21--------------------|
D|-------12-14-------14-17-12-14-------14-17--------------------------------|
A|-12-14-------14-17--------------------------------------------------------|
E|--------------------------------------------------------------------------|

e|-------------------------19-22^-22^~|------------------|------------22^-22--|
B|------------------------------------|------------------|--------------------|
G|------------------------------------|---19----19----19-|------16-18---------|
D|----------------17-19-20------------|19----19----19----|17-19---------------|
A|-12-13-14-17-19---------------------|------------------|--------------------|
E|------------------------------------|------------------|--------------------|

e|19-22-20-19-17-20-19-17-15-19-17-15-17-19-|----------------|
B|------------------------------------------|---8-10-12-10-8-|
G|------------------------------------------|-9--------------|play
D|------------------------------------------|----------------|three times
A|------------------------------------------|----------------|
E|------------------------------------------|----------------|

e|---------------------------|----|
B|---------------------------|-7^~|
G|---0-4p2p0h4p2p0-----4^-7^-|----|
D|-----------------2^-5^-----|----|
A|-7-------------------------|----|
E|---------------------------|----|

thats it, if you have any questions you can email me


|(#) rapidly picking up and down
| T tape with finger
| harmonic
| / slide up
| \ slide down
| h hammer-on
| p pull-off
| ~ vibrato
| x Mute note
===============================================================================
Tunning: Standard (E A D G B e)
[begin tab]

Standard Tuning

riff #1 intro solo
|----------------|-00-0-0-------------------------| ill put the
|----------------|-55-1212-11h12p11p9-------------| solo in parts
|-999-------5-77-|--------------------12p11p9-----| to make it
|-999-55-77-5-77-|----------------------------12p0| easier for
|-777-55-77-3-55-|--------------------------------| you
|-----33-55------|--------------------------------|
screw with the 5's and 12's im not typing it out

|----------------15br-14h15p14p12----------15-------17b-15-17-15|
|-------15----------------------15-15h17----15b17---------------|
|-14b16----14b16------------------------------------------------|
|---------------------------------------------------------------|
|---------------------------------------------------------------|
|---------------------------------------------------------------|

|-20b-20b-20b-20b-17-20-19-17-15-19-17-15-14-17-15-14|-12------|
|----------------------------------------------------|---15b17-|
|----------------------------------------------------|---------|
|----------------------------------------------------|---------|
|----------------------------------------------------|---------|
|----------------------------------------------------|---------|
repeat 6x
solo out (the part i love)
|12-15-12---------------------------------------|
|---------15-12---------------------------------|
|---------------15-14-12------------------------|
|------------------------14-12------------------|
|------------------------------14-13-12---------|
|---------------------------------------15-12/10|
looks hard but actually its really easy once your
fingers get the pattern down

this part is muted ()'s are optional, i like to use them when
the big drum clashes
|------------------------------------------------------|
|------------------------------------------------------|
|------------------------------------------------------|
|------------------------------------------------------|
|-333-7777-(0)-333-77-55-(0)-333-7777-(0)-333-5555-(0)-|
|------------------------------------------------------|

this part isnt played in the begining but it is
throughout the rest of the song
|----------------------|
|----------------------|
|-5-99-5-9-7--5-99-5-7-|
|-5-99-5-9-7--5-99-5-7-|
|-3-77-3-7-5--3-77-3-5-|
|----------------------|

after this you go back to riff #1

*main solo*

|-13-|-------------|------|----------------|
|-16-|-------------|------|-13h16p13h16----|
|----|-15br(15)p13-|-15bF-|-------------15-|
|----|-------------|------|----------------|
|----|-------------|------|----------------|
|----|-------------|------|----------------|
repeat 2x repeat 3x

|------------------------------|
|-13h16p13h16-----13h16p13-----|
|-------------15b----------15/-|
|------------------------------|
|------------------------------|
|------------------------------|

|---------------------------------------------------1515-18bF-|
|-----------------------------------------1515-1717-----------|
|----------------1212-1414-1616-1414-1616---------------------|
|------1212-1414----------------------------------------------|
|-1414--------------------------------------------------------|
|-------------------------------------------------------------|

-------------------------|----------------|------------|
-------------------------|-15br(15)p13----|------------|
-17br--15-13-15br p13----|-15br(15)p13----|-0-2-4-5-7b-|
----------------------15-|-------------15-|------------|
-------------------------|----------------|------------|
-------------------------|----------------|------------|
repeat 3x

----------------------------------------------------------------|
---5-8p5---7-10p7----9-12p9----12-15p12----14-17p14----16-19p16-|
-/7-----/9-------/11-------/14---------/16---------/18----------|
----------------------------------------------------------------|
----------------------------------------------------------------|
----------------------------------------------------------------|

-------------------------------22----------------------------------|
-----17-20p17----19-22p19-22bf----22bf-22bf-r----------------------|
-/19---------/21------------------------------------------------19-|
-------------------------------------------------------19-21-22----|
----------------------------------------------19-21-22-------------|
-------------------------------------------------------------------|

3x
--22bF r-|----22-20-19----20p19----19-20-19h20p19-------|
---------|-21----------22-------22----------------22-20-|
---------|----------------------------------------------|
---------|----------------------------------------------|
---------|----------------------------------------------|
---------|----------------------------------------------|

-------------------------------------------------------------|
-------------------------------------------------------------|
-1717p15--------15-17p15-17p15-------15-17-17p151715---------|
--------17-1517----------------17-15-----------------1717p15-|
-------------------------------------------------------------|
-------------------------------------------------------------|

--------------------------------|
-----------------------------7b-|
---0-2-2p0--2p0---0-2-4-5-7--7b-| end solo
-2--------------2---------------|
--------------------------------|
--------------------------------|


when it goes back into the riff its like this

|--------------------------|
|--------------------------|
|-99--5-99-5-9-7--5-99-5-7-|
|-99--5-99-5-9-7--5-99-5-7-|
|-77--3-77-3-7-5--3-77-3-5-|
|--------------------------|

[end tab]
Tunning: Standard (E A D G B e)
Band: Scorpions
Album: Love at First Sting
Song: Rock You Like a Hurricane

Copyright (c) (Harvest) (1984)
Version 1.0 - (05/04/06)



. - palm mute / - slide up to
\ - slide down to ~ - vibrato
h - hammer on b - Bend
p - pull off Suffixes for bend
t - tap f - full bend h - half bend
ph - pinched harmonic q - quarter bend t - tap bend
* - see comment ^ - Hold bend r release bend
x - Stuccatto ~ - vibrato bend
, - slight palm mute () - ghost note, sustained note
" - tremolo note <> - harmonic

Tunning E A D G B E



Intro / Main Riff


E--------------------------|
B--------------------------|
G-9-9-9\-----------5--7-7/-|
D-9-9-9\-5-5--7-7--5--7-7/-|
A-7-7-7\-5-5--7-7--3--5-5/-|
E--------3-3--5-5----------| Rpt 7 X

Enters 3rd time

E-------------------------------------|
B-------------------------------------|
G-99999x9x9x9x99999x9x9x9x99999x9x9x9-|
D-------------------------------------|
A-------------------------------------|
E-------------------------------------|

Guitar 2
E[-------------------------------------|
B[-------------------------------------|
G[-9-9-9-9-9-x9-x9-x9x-9-9-9-9-9-x9-x--|
D[-------------------------------------|
A[-------------------------------------|
E[-------------------------------------|
[Guitar 3
E[-0-0-0-0-0--0--0--0--0-0-0-0-0--0----|
B[-1212121212x12x12x12x1212121212x12x--|
G[-------------------------------------|
D[-------------------------------------|
A[-------------------------------------|
E[-------------------------------------|


Guitar 2
E[----------------------------|
B[-12-10-12p10----------------|
G[-------------12-11-9-8-7----|
D[-------------------------7--|
A[----------------------------|
E[----------------------------|
[Guitar 3
E[----------------------------|
B[-8--7--8-p8-----------------|
G[-------------9--7-----------|
D[-------------------9-8-7----|
A[-------------------------10-|
E[----------------------------|

Guitar solo

Guitar 1
~~~~~~~~ h ~~~~~~~~~~
E[----15---------15-14-15p14-12-------15-------------|
B[-15b--15b---------------------15-15b---15b---------|
G[---------------------------------------------------|
D[---------------------------------------------------|
A[---------------------------------------------------|
E[---------------------------------------------------|
[Guitar 2
[ ~~~~~~~~ h ~~~~~~~~~~~
E[---------------19-17-19p17----------19-------------|
B[----15---------------------20-19-19b---19b---------|
G[-14b--14b------------------------------------------|
D[---------------------------------------------------|
A[---------------------------------------------------|
E[---------------------------------------------------|

Guitar 1
~~~~~~
E[-17b-r17-15-17b------22fb-22fb-22b22fbr-19-22-19\17-20-19-17-----|
B[-------------------------------------------------------------20--|
G[-----------------------------------------------------------------|
D[-----------------------------------------------------------------|
A[-----------------------------------------------------------------|
E[-----------------------------------------------------------------|
[Guitar 2
E[-21b-r21-19-21b--------------------------------------------------|
B[-----------------------------------------------------------------|
G[-----------------------------------------------------------------|
D[-----------------------------------------------------------------|
A[-----------------------------------------------------------------|
E[-----------------------------------------------------------------|

~~~~~~~~~~~~~~~~~~~~~~~~~~~~~~~~ h
E-19-20-19-17---/22-12----12-----12---12--12--12--12---12-17p12-|
B-------------20-------15b---15b----15b-15b-15b-15b-15b---------|
G---------------------------------------------------------------|
D---------------------------------------------------------------|
A---------------------------------------------------------------|
E---------------------------------------------------------------|

E----------------------------------|
B-15-12----------------------------|
G-------14-12-11-------------------|
D----------------14-12-------------|
A----------------------14-13-12\10-|
E----------------------------------|



Last time


E-------------------------------------------|
B-------------------------------------------|
G-9-9-9\-----------5--7-7--------(7)------\-|
D-9-9-9\-5-5--7-7--5--7-7--------(7)------\-|
A-7-7-7\-5-5--7-7--3--5-5--------(5)------\-|
E--------3-3--5-5---------------------------|

Verse
[------------------PM-------------------]
E-----------------------------------------|
B-----------------------------------------|
G-----------------------------------------|
D----------9-9-9-9-9-9----------9-9\7-7-7-|
A-10101010-7-7-7-7-7-7-10101010-7-7\5-5-5-|
E-8-8-8-8--------------8-8-8-8------------|

[------------------PM-------------------]
E-----------------------------------------|
B-----------------------------------------|
G-----------------------------------------|
D----------9-9-9-9-9-9----------7-7-7-7-7-|
A-10101010-7-7-7-7-7-7-10101010-5-5-5-5-5-|
E-8-8-8-8--------------8-8-8-8------------|

Rpt 4 X

Guitar fill
~~~~~~~~~~~~~~~~~~~~~~~~~~~~~
E-----<12>-0------------------------------|
B-<12>------------------------------------|
G-----------------------------------------|
D-----------------------------------------|
A-----------------------------------------|
E-----------------------------------------|

[-------------PM-------------] pick scrape
E-------------------------------------------------|
B-------------------------------------------------|
G-------------------------------------------------|
D----------9-9-9-9-9-9----------7------(7)--\-\---|
A-10101010-7-7-7-7-7-7-10101010-5------(5)---\-\--|
E-8-8-8-8--------------8-8-8-8--------------------|

Chorus

Rpt Main Riff 3 X

E-------------------------------------------|
B-------------------------------------------|
G-9-9-9\-----------5--7-7--------(7)------\-|
D-9-9-9\-5-5--7-7--5--7-7--------(7)------\-|
A-7-7-7\-5-5--7-7--3--5-5--------(5)------\-|
E--------3-3--5-5---------------------------|

Verse
[------------------PM-------------------]
E-----------------------------------------|
B-----------------------------------------|
G-----------------------------------------|
D----------9-9-9-9-9-9----------9-9\7-7-7-|
A-10101010-7-7-7-7-7-7-10101010-7-7\5-5-5-|
E-8-8-8-8--------------8-8-8-8------------|

[------------------PM-------------------]
E-----------------------------------------|
B-----------------------------------------|
G-----------------------------------------|
D----------9-9-9-9-9-9----------7-7-7-7-7-|
A-10101010-7-7-7-7-7-7-10101010-5-5-5-5-5-|
E-8-8-8-8--------------8-8-8-8------------|

Rpt 2 X

Guitar 1
[----PM----] [----PM----]
E[----------------------------------------|
B[----------------------------------------|
G[----------------------------------------|
D[---------9-9-9-9-9-9---------9-9\7-7-7--|
A[-0-2-3---7-7-7-7-7-7-0-2-3---7-7\5-5-5--|
E[----------------------------------------|
[Guitar 2
E[----------------------------------------|
B[----------------------------------------|
G[-------------9\----------------9\7-7----|
D[-------------9\----------------9\7-7----|
A[----------------------------------------|
E[----------------------------------------|

Guitar 1
[----PM----] [----PM----]
E[----------------------------------------|
B[----------------------------------------|
G[----------------------------------------|
D[---------9-9-9-9-9-9---------7-7-7-7-7--|
A[-0-2-3---7-7-7-7-7-7-0-2-3---5-5-5-5-5--|
E[----------------------------------------|
[Guitar 2
E[----------------------------------------|
B[----------------------------------------|
G[-------------9\----------------7\-------|
D[-------------9\----------------7\-------|
A[----------------------------------------|
E[----------------------------------------|

Guitar 1
[----PM----] [----PM----]
E[----------------------------------------|
B[----------------------------------------|
G[----------------------------------------|
D[---------9-9-9-9-9-9---------9-9\7-7-7--|
A[-0-2-3---7-7-7-7-7-7-0-2-3---7-7\5-5-5--|
E[----------------------------------------|
[Guitar 2
E[----------------------------------------|
B[-------------------------------8-7------|
G[-------------9\----------------7-7------|
D[-------------9\-------------------------|
A[----------------------------------------|
E[----------------------------------------|

Guitar 1
[----PM----]
E[---------------------------------------------------|
B[---------------------------------------------------|
G[---------------------------------------------------|
D[---------9-9-9-9-9-9---------7-------(7)-----------|
A[-0-2-3---7-7-7-7-7-7-0-2-3---5-------(5)-----------|
E[---------------------------------------------------|
[Guitar 2
E[---------------------------------------------------|
B[---------------------------------------------------|
G[-------------9-9\------------7-------(7)-----------|
D[-------------9-9\------------7-------(7)-----------|
A[-----------------------------5-------(5)-----------|
E[---------------------------------------------------|


Pre Chorus Lead Fill
~~~~~~~~~~~~~~~~~~~~~~~~~~~~~~~~~~~~~~~~~~
E------------------------------------------------------|
B-------15b-------15b-15b-15b-15brp12-15fb---------\---|
G-14---------------------------------------------------|
D------------------------------------------------------|
A------------------------------------------------------|
E------------------------------------------------------|

Rpt Chorus 2 X

Chorus Lead fills
~~~~~~~~~~~~~~~~~
E----------------------|
B-15fb--------------\--|
G----------------------|
D----------------------|
A----------------------|
E----------------------|

~~~~~~~~~~~~~~~~~
E-12--12--12--12-------|
B-15fb15fb15fb15fb--\--|
G----------------------|
D----------------------|
A----------------------|
E----------------------|

~~~~~~~~~~~~~~~~~
E-12-------------------|
B-15fb--------------\--|
G----------------------|
D----------------------|
A----------------------|
E----------------------|

Guitar 1
E[------------------------------------------|
B[------------------------------------------|
G[-9-9---------(9)---------7-----(7)--------|
D[-9-9---------(9)---------7-----(7)--------|
A[-7-7---------(7)---------5-----(5)--------|
E[------------------------------------------|
[Guitar 2
[ ~~~~~~~~~~~~~~~~~~~~~~~~~~~~~~~~~~~~~~
E[-12-12--15-17fb17fb17-15------------------|
B[-15b15b-----------------------------------|
G[-------------------------14---------b-----|
D[------------------------------------------|
A[------------------------------------------|
E[------------------------------------------|
[Guitar 3
[ ~~~~~~~~~~~~~~
E[------------------------------------------|
B[-------------------------15---------b-----|
G[------------------------------------------|
D[------------------------------------------|
A[------------------------------------------|
E[------------------------------------------|

Guitar solo

Backing for solo is main riff


h h t h t h t h h pick scrape
E-------------------------------------------------------------------|
B-12-15p12-15p12-17/-12-15p12-17/-12-15p12-17/-12-15p12-15p12-\-\---|
G--------------------------------------------------------------\-\--|
D-------------------------------------------------------------------|
A-------------------------------------------------------------------|
E-------------------------------------------------------------------|

[----------PM----------] ph~~~~ph~~~~
E---------------------------------1010-1212-1515-17fb---------------|
B----------88-1010-1212-1010-1212----------------------15fb--15brp--|
G----77-99----------------------------------------------------------|
D-99----------------------------------------------------------------|
A-------------------------------------------------------------------|
E-------------------------------------------------------------------|


E-12--------------------------------------------------------|
B----15b-12----------14br---------14br--------14br----------|
G-----------14-12----14br14p12----14br4p12----14br14p12-----|
D-----------------14-----------14----------14-----------14--|
A-----------------------------------------------------------|
E-----------------------------------------------------------|

Guitar 1
ph~~~
E[--------------------------------------------------------|
B[--------------------------------------------------------|
G[----------------------7-9p7------9-11p9--------12-14p12-|
D[-------------12----/9-------9/11--------11-/14----------|
A[-10-11-12-13--------------------------------------------|
E[--------------------------------------------------------|
[Guitar 2 ph~~~
E[--------------------------------------------------------|
B[-------------15-----------------------------------------|
G[--------------------------------------------------------|
D[--------------------------------------------------------|
A[--------------------------------------------------------|
E[--------------------------------------------------------|


E------------------12--------15-17p15----/22--|
B-----12-15p12-/12----15-/17----------17/-----|
G-/12-----------------------------------------|
D---------------------------------------------|
A---------------------------------------------|
E---------------------------------------------|

~~~~~~~~~~~~~~~ ~~~~~~~~~~~~~~~~~
E----22--------------------------------------22-22fb--------|
B-22fb--22fb--22br\-----------12-15/17-19/22fb--------------|
G-----------------------12-14-------------------------------|
D--------------------14-------------------------------------|
A-----------------------------------------------------------|
E-----------------------------------------------------------|


~~~~~~~~~~~~~~~~~~~~~~~
E----------------17-------------17-19-20-22fb--22fb--22b22fb-----|
B----------15-------17-17-19-20----------------------------------|
G-12-14-12----12-------------------------------------------------|
D----------------------------------------------------------------|
A----------------------------------------------------------------|
E----------------------------------------------------------------|

h h
E-19-22-19\17-19-17\15\14-17-19p17\15\14----------------|
B----------------------------------------11-12p11-------|
G-------------------------------------------------12----|
D----------------------------------------------------14-|
A-------------------------------------------------------|
E-------------------------------------------------------|

phphphph phphphphphph ph ph ph ~~~~~~~~~
E-------------------------------------------------------------------------|
B-12p11-12p11-------12-11----------------------------------------7b-------|
G-------------12----------12-------0-2-2brp0-2p0---0-2--3--4--5--7b-------|
D----------------14----------14--2---------------2------------------------|
A-------------------------------------------------------------------------|
E-------------------------------------------------------------------------|


Verse with vocals and drums on own.

E--------|
B--------|
G-7--7---|
D-7--7---|
A-5--5---|
E--------|

Guitar 1
~~~~~~~ ~~~~~~~
E[-----------------------------------------|
B[-----------------------------------------|
G[-----------------------------------------|
D[-----------------------------------------|
A[-0-2-3---------------0-2-3---------------|
E[-----------------------------------------|
[Guitar 2
[[------------------PM-------------------]
E[-----------------------------------------|
B[-----------------------------------------|
G[-----------------------------------------|
D[----------9-9-9-9-9-9----------9-9\7-7-7-|
A[-10101010-7-7-7-7-7-7-10101010-7-7\5-5-5-|
E[-8-8-8-8--------------8-8-8-8------------|
[Guitar 3
E[----------------------------------------|
B[----------------------------------------|
G[-------------9\----------------9\7\-----|
D[-------------9\----------------9\7\-----|
A[----------------------------------------|
E[----------------------------------------|

Guitar 1
~~~~~~~ ~~~~~~~
E[-----------------------------------------|
B[-----------------------------------------|
G[-----------------------------------------|
D[-----------------------------------------|
A[-0-2-3---------------0-2-3---------------|
E[-----------------------------------------|
[Guitar 2
[[------------------PM-------------------]
E[-----------------------------------------|
B[-----------------------------------------|
G[-----------------------------------------|
D[----------9-9-9-9-9-9----------5-5-7-7-7-|
A[-10101010-7-7-7-7-7-7-10101010-5-5-5-5-5-|
E[-8-8-8-8--------------8-8-8-8------------|
[Guitar 3
E[-----------------------------------------|
B[---------------------------------7\------|
G[-------------9\------------------7\------|
D[-------------9\--------------------------|
A[-----------------------------------------|
E[-----------------------------------------|

Guitar 1
[----PM----]
E[---------------------------------------------------|
B[---------------------------------------------------|
G[---------------------------------------------------|
D[---------9-9-9-9-9-9---------7-------(7)-----------|
A[-0-2-3---7-7-7-7-7-7-0-2-3---5-------(5)-----------|
E[---------------------------------------------------|
[Guitar 2 pick scrape
E[---------------------------------------------------|
B[---------------------------------------------------|
G[-------------9-9\------------7-------(7)------\-\--|
D[-------------9-9\------------7-------(7)-------\-\-|
A[-----------------------------5-------(5)--------\-\|
E[---------------------------------------------------|

Rpt Chorus 2 X

Chorus Lead fills
~~~~~~~~~~~~~~~~~
E-12--12---------------|
B-15fb15fb----------\--|
G----------------------|
D----------------------|
A----------------------|
E----------------------| Rpt 4 x

phph
E-----------12---------------------------------------------------------|
B----------------------------------------------------------------------|
G---------9----9-9-9-9-9-x9-x9-x9x-9-9-9-9-9-x9-x-9-x-9-9-9-9-9-x9-x-9-|
D-----2-7--------------------------------------------------------------|
A-0-3------------------------------------------------------------------|
E----------------------------------------------------------------------|
t t t pick scrape
E----12---------12---------12---------12----------------------------|
B-------15p12------15p12------15p12------15p12-15b--17/-17/-17/-\---|
G-14b---------14b--------14b--------14b-------------------------\---|
D-------------------------------------------------------------------|
A-------------------------------------------------------------------|
E-------------------------------------------------------------------|


E----------------------------------------------1212-1515-17fb17b-----|
B--------------------------1212------1212-1515-------------------15b-|
G----------------1212-1414------1414---------------------------------|
D------1212-1414-----------------------------------------------------|
A-1414---------------------------------------------------------------|
E--------------------------------------------------------------------|

E-12-----------------------|
B----15-12-----------------|
G----------14-12-----------|
D----------------14-12-----|
A----------------------14--|
E--------------------------|

E----------|
B----------|
G-9-9-9\---|
D-9-9-9\---|
A-7-7-7\---|
E----------|



END

Tunning: Standard (E A D G B e)
Intro
Moderate Rock Q=124
4/4
Gtr I
||------------------|------------------|
||o-----------------|-----------------o|
||--9-9-9-----------|-------5---7-7----|
||--9-9-9-----5-5---|-7-7---5---7-7----|
||o-7-7-7-----5-5---|-7-7---3---5-5---o|
||------------3-3---|-5-5--------------|


Gtr II
|----------------------------------------------|
|----------------------------------------------|
|----------------------------------------------|
|-14-14-14-14-14--14-14-(14)-14-14-14-14-14-14-|
|----------------------------------------------|
|----------------------------------------------|
|
| Gtr I
|----------------------------------------------|
|----------------------------------------------|
|--9-----9-----9-------------------------------|
|--9-----9-----9----------------5--5-----------|
|--7-----7-----7----------------5--5-----------|
|-------------------------------3--3-----------|


|---------------------------------------------|
|---------------------------------------------|
|---------------------------------------------|
|-14-14-14-14-14-14-14-(14)-14-14-14-14-14-14-|
|---------------------------------------------|
|---------------------------------------------|
|
|---------------------------------------------|
|---------------------------------------------|
|-----------------5-------------7--7----------|
|--7-----7--------5-------------7--7----------|
|--7-----7--------3-------------5--5----------|
|--5-----5------------------------------------|


Gtr III
|----------------------------------------------|
|----------------------------------------------|
|-16-16-16-16-16--16-16-(16)-16-16-16-16-16-16-|
|----------------------------------------------|
|----------------------------------------------|
|----------------------------------------------|
|
| Gtr II
|----------------------------------------------|
|----------------------------------------------|
|----------------------------------------------|
|-14-14-14-14-14--14-14-(14)-14-14-14-14-14-14-|
|----------------------------------------------|
|----------------------------------------------|
|
| Gtr I
|----------------------------------------------|
|----------------------------------------------|
|--9-----9-----9-------------------------------|
|--9-----9-----9----------------5--5-----------|
|--7-----7-----7----------------5--5-----------|
|-------------------------------3--3-----------|


|-------------------------------------------------|
|-------------------------------------------------|
|-16-16-16-16-16-16-16-14h16p14-------------------|
|-------------------------------17-16-14----------|
|----------------------------------------17-15-14-|
|-------------------------------------------------|
|
|-------------------------------------------------|
|-------------------------------------------------|
|----------------------11h12p11-------------------|
|-14-14-14-14-14-14-14----------14-12-------------|
|-------------------------------------14-13-12----|
|----------------------------------------------15-|
|
|-------------------------------------------------|
|-------------------------------------------------|
|-----------------5--------------7-----7----------|
|--7-----7--------5--------------7-----7----------|
|--7-----7--------3--------------5-----5----------|
|--5-----5----------------------------------------|


~~~~~~~~~~~~~~~~
|------------15-------------------|----------/19-(19)-17h19p17s15----|
|-15b17-(15)-----15b17==(15)------|-(15)r-------------------------19-|
|---------------------------------|----------------------------------|
|---------------------------------|----------------------------------|
|---------------------------------|----------------------------------|
|---------------------------------|----------------------------------|
|
| ~~~~~~~~~~~~~~~~
|---------------------------------|----------/15-(15)-14h15p14s12----|
|------------15-------------------|-------------------------------15-|
|-14b16-(14)-----14b16==(14)------|-(14)r----------------------------|
|---------------------------------|----------------------------------|
|---------------------------------|----------------------------------|
|---------------------------------|----------------------------------|
|
|---------------------------------|----------------------------------|
|---------------------------------|----------------------------------|
|--9------9---9-------------------|------------5-------7--------7----|
|--9------9---9--------------5-5--|---7---7----5-------7--------7----|
|--7------7---7--------------5-5--|---7---7----3-------5--------5----|
|----------------------------3-3--|---5---5--------------------------|


~~~~ ~~
|------------19------------------|---22b24==(22)r(22)p19-22------|
|-19b20-(19)-----19b20-(19)------|-------------------------------|
|--------------------------------|-------------------------------|
|--------------------------------|-------------------------------|
|--------------------------------|-------------------------------|
|--------------------------------|-------------------------------|
|
| ~~~~ ~~
|------------15------------------|---17b19==(17)r(17)p15-17------|
|-15b17-(15)-----15b17-(15)------|-------------------------------|
|--------------------------------|-------------------------------|
|--------------------------------|-------------------------------|
|--------------------------------|-------------------------------|
|--------------------------------|-------------------------------|
|
|--------------------------------|-------------------------------|
|--------------------------------|-------------------------------|
|--9------9---9------------------|-----------------5-------7-7---|
|--9------9---9-------------5-5--|-7--7------------5-------7-7---|
|--7------7---7-------------5-5--|-7--7------------3-------5-5---|
|---------------------------3-3--|-5--5--------------------------|


Gtrs II, III
|-22b24---22b24--22b24-22b24==(22)r(22)-19-|
|------------------------------------------|
|------------------------------------------|
|------------------------------------------|
|------------------------------------------|
|------------------------------------------|
|
| Gtr I
|------------------------------------------|
|------------------------------------------|
|--9----9--9-------------------------------|
|--9----9--9-----------5-------5-----------|
|--7----7--7-----------5-------5-----------|
|----------------------3-------3-----------|


|-22-20-19-17-20-19-17-------19h20p19-17-------22-12----|
|----------------------20-19-------------20-19----------|
|-------------------------------------------------------|
|-------------------------------------------------------|
|-------------------------------------------------------|
|-------------------------------------------------------|
|
|-----------------------------------------------------|
|-----------------------------------------------------|
|--------------------5-----------------7--------7-----|
|--7-----7-----------5-----------------7--------7-----|
|--7-----7-----------3-----------------5--------5-----|
|--5-----5--------------------------------------------|


|-------12--------------12-------12-------12-------12-------12-------12-|
|-15b17----15b17==(15)r----15b17----15b17----15b17----15b17----15b17----|
|-----------------------------------------------------------------------|
|-----------------------------------------------------------------------|
|-----------------------------------------------------------------------|
|-----------------------------------------------------------------------|
|
|-----------------------------------------------------------------------|
|-----------------------------------------------------------------------|
|--9-----9----------9---------------------------------------------------|
|--9-----9----------9------------------------5--------5-----------------|
|--7-----7----------7------------------------5--------5-----------------|
|--------------------------------------------3--------3-----------------|


|-17-12-------------------------------------------|
|-------15-12-------------------------------------|
|-------------15-12-12----------------------------|
|----------------------14-12-12-------------------|
|-------------------------------14-13-------------|
|-------------------------------------15----------|
|
|-----------------------------------------------|
|-----------------------------------------------|
|-----------------------------5-----------7-7---|
|--7--------7-----------------5-----------7-7---|
|--7--------7-----------------3-----------5-5---|
|--5--------5-----------------------------------|


1st Verse
Gtr I
PM----------------------------------|
|------------||-----------------|-------------------|
|------------||-----------------|-------------------|
|-(7)--------||-5-5-5-9-9-9-9-9-|-5-5-5-9-9-7-7-7---|
|-(7)--------||-5-5-5-9-9-9-9-9-|-5-5-5-9-9-7-7-7---|
|-(5)--------||-3-3-3-7-7-7-7-7-|-3-3-3-7-7-5-5-5---|
|------------||-----------------|-------------------|


Gtr II
|-----------------|-----------------------|
|-----------------|-------------------<5>-|
|-----------------|---------------<7>-----|
|-----------------|-----------<7>---------|
|-----------------|-----------------------|
|-----------------|-----------------------|
|
| Gtr I
| PM----------------------------------------|
|-----------------|-------------------------|
|-----------------|-------------------------|
|-5-5-5-9-9-9-9-9-|-5-5-5-7-7--7---7---7----|
|-5-5-5-9-9-9-9-9-|-5-5-5-7-7--7---7---7----|
|-3-3-3-7-7-7-7-7-|-3-3-3-5-5--5---5---5----|
|-----------------|-------------------------|


>
~~~~~~~~~~~~~~~~~~~~~~
|-0---------------|-(0)---------------|
|-----------------|-------------------|
|-----------------|-------------------|
|-----------------|-------------------|
|-----------------|-------------------|
|-----------------|-------------------|
|
| PM------------------------------------|
|-----------------|---------------------|
|-----------------|---------------------|
|-5-5-5-9-9-9-9-9-|--5--5-5-9-9-7-7-7---|
|-5-5-5-9-9-9-9-9-|--5--5-5-9-9-7-7-7---|
|-3-3-3-7-7-7-7-7-|--3--3-3-7-7-5-5-5---|
|-----------------|---------------------|


Gtr I
PM----------------------------------------------------|
|-----------------|-----------------|-------------------|
|-----------------|-----------------|-------------------|
|-5-5-5-9-9-9-9-9-|-5-5-5-7-7-7-7-7-|-5-5-5-9-9-9-9-9---|
|-5-5-5-9-9-9-9-9-|-5-5-5-7-7-7-7-7-|-5-5-5-9-9-9-9-9---|
|-3-3-3-7-7-7-7-7-|-3-3-3-5-5-5-5-5-|-3-3-3-7-7-7-7-7---|
|-----------------|-----------------|-------------------|


PM----------------------------------------------------|
|-----------------|-----------------|-------------------|
|-----------------|-----------------|-------------------|
|-5-5-5-9-9-7-7-7-|-5-5-5-9-9-9-9-9-|-5-5-5-7-7-7-7-7---|
|-5-5-5-9-9-7-7-7-|-5-5-5-9-9-9-9-9-|-5-5-5-7-7-7-7-7---|
|-3-3-3-7-7-5-5-5-|-3-3-3-7-7-7-7-7-|-3-3-3-5-5-5-5-5---|
|-----------------|-----------------|-------------------|


PM----------------------------------------------------|
|-----------------|-----------------|-------------------|
|-----------------|-----------------|-------------------|
|-5-5-5-9-9-9-9-9-|-5-5-5-9-9-7-7-7-|-5-5-5-9-9-9-9-9---|
|-5-5-5-9-9-9-9-9-|-5-5-5-9-9-7-7-7-|-5-5-5-9-9-9-9-9---|
|-3-3-3-7-7-7-7-7-|-3-3-3-7-7-5-5-5-|-3-3-3-7-7-7-7-7---|
|-----------------|-----------------|-------------------|


2/4
PM--|
|----------------|------------|--------|
|----------------|------------|--------|
|-5-5-5-7-(7)----|-(7)--------|-(7)----|
|-5-5-5-7-(7)----|-(7)--------|-(7)----|
|-3-3-3-5-(5)----|-(5)--------|-(5)----|
|----------------|------------|--------|


Chorus
4/4
|---------------|--------------|------------------|
|---------------|--------------|------------------|
|-9-9-9---------|------5--7-7--|-9-9-9------------|
|-9-9-9----5-5--|-7-7--5--7-7--|-9-9-9----5-5-----|
|-7-7-7----5-5--|-7-7--3--5-5--|-7-7-7----5-5-----|
|----------3-3--|-5-5----------|----------3-3-----|


|--------------|---------------|--------------|-----------------|
|--------------|---------------|--------------|-----------------|
|------5--7-7--|-9-9-9---------|------5--7-7--|-9-9-9-----------|
|-7-7--5--7-7--|-9-9-9----5-5--|-7-7--5--7-7--|-9-9-9----5-5----|
|-7-7--3--5-5--|-7-7-7----5-5--|-7-7--3--5-5--|-7-7-7----5-5----|
|-5-5----------|----------3-3--|-5-5----------|----------3-3----|


2nd Verse
PM----------------|
|--------------|------------||-------------------|
|--------------|------------||-------------------|
|------5--7-7--|-(7)--------||-5-5-5-9-9-9-9-9---|
|-7-7--5--7-7--|-(7)--------||-5-5-5-9-9-9-9-9---|
|-7-7--3--5-5--|-(5)--------||-3-3-3-7-7-7-7-7---|
|-5-5----------|------------||-------------------|


PM----------------------------------------------------|
|-----------------|-----------------|-------------------|
|-----------------|-----------------|-------------------|
|-5-5-5-9-9-7-7-7-|-5-5-5-9-9-9-9-9-|-5-5-5-7-7-7-7-7---|
|-5-5-5-9-9-7-7-7-|-5-5-5-9-9-9-9-9-|-5-5-5-7-7-7-7-7---|
|-3-3-3-7-7-5-5-5-|-3-3-3-7-7-7-7-7-|-3-3-3-5-5-5-5-5---|
|-----------------|-----------------|-------------------|


PM----------------------------------------------------|
|-----------------|-----------------|-------------------|
|-----------------|-----------------|-------------------|
|-5-5-5-9-9-9-9-9-|-5-5-5-9-9-7-7-7-|-5-5-5-9-9-9-9-9---|
|-5-5-5-9-9-9-9-9-|-5-5-5-9-9-7-7-7-|-5-5-5-9-9-9-9-9---|
|-3-3-3-7-7-7-7-7-|-3-3-3-7-7-5-5-5-|-3-3-3-7-7-7-7-7---|
|-----------------|-----------------|-------------------|


PM-------------------------------------------------------------|
|-------------------|----------------------|---------------------|
|-------------------|----------------------|---------------------|
|-5-5-5-7-7-7-7-7---|-5-5-5-9--9---9-9-9---|-5-5-5-9-9-7-7-7-----|
|-5-5-5-7-7-7-7-7---|-5-5-5-9--9---9-9-9---|-5-5-5-9-9-7-7-7-----|
|-3-3-3-5-5-5-5-5---|-3-3-3-7--7---7-7-7---|-3-3-3-7-7-5-5-5-----|
|-------------------|----------------------|---------------------|
|
| Gtrs II, III
|-------------------|----------------------|---------------------|
|-------------------|----------------------|-------8---7---------|
|-------------------|-------9-(9)----------|-------7---7---------|
|-------------------|-------9-(9)----------|-------7---7---------|
|-------------------|-------7-(7)----------|---------------------|
|---------------5-7-|-8-8--------------5-7-|-8-8-----------5-7---|


PM-------------------------------------------------------------------|
|----------------------|----------------------|------------------------|
|----------------------|----------------------|------------------------|
|-5-5-5-9--9---9-9-9---|-5-5-5-7--7---7-7-7---|-5-5-5-9--9---9-9-9-----|
|-5-5-5-9--9---9-9-9---|-5-5-5-7--7---7-7-7---|-5-5-5-9--9---9-9-9-----|
|-3-3-3-7--7---7-7-7---|-3-3-3-5--5---5-5-5---|-3-3-3-7--7---7-7-7-----|
|----------------------|----------------------|------------------------|
|
|----------------------|----------------------|------------------------|
|----------------------|----------------------|------------------------|
|-------9-(9)----------|-------7-(7)----------|-------9-(9)------------|
|-------9-(9)----------|-------7-(7)----------|-------9-(9)------------|
|-------7-(7)----------|-------5-(5)----------|-------7-(7)------------|
|-8-8--------------5-7-|-8-8--------------5-7-|-8-8--------------5-7---|


PM-----------------------------------------|
|-------------------|------------------------|
|-------------------|------------------------|
|-5-5-5-9-9-7-7-7---|-5-5-5-9--9---9-9-9-----|
|-5-5-5-9-9-7-7-7---|-5-5-5-9--9---9-9-9-----|
|-3-3-3-7-7-5-5-5---|-3-3-3-7--7---7-7-7-----|
|-------------------|------------------------|
|
|-------------------|------------------------|
|-------8---7-------|------------------------|
|-------7---7-------|-------9-(9)------------|
|-------7---7-------|-------9-(9)------------|
|-------------------|-------7-(7)------------|
|-8-8-----------5-7-|-8-8--------------5-7---|


2/4
Gtr II
~~~~~
|----------------|--------------------------|------------------------||
|----------------|-15b17-----15pb17--15pb17-|-----15pb17-15pb17r(15)-||
|-------7-(7)----|--------------------------|------------------------||
|-------7-(7)----|--------------------------|------------------------||
|-------5-(5)----|--------------------------|------------------------||
|-8-8------------|--------------------------|------------------------||
|
| Gtr III
|----------------|--------------------------|------------------------||
|----------------|--------------------------|------------------------||
|-------7-(7)----|-(7)----------------------|-(7)--------------------||
|-------7-(7)----|-(7)----------------------|-(7)--------------------||
|-------5-(5)----|-(5)----------------------|-(5)--------------------||
|-8-8------------|--------------------------|------------------------||
|
| Gtr I
| PM--|
|----------------|--------------------------|------------------------||
|----------------|--------------------------|------------------------||
|-5-5-5-7-(7)----|-(7)----------------------|-(7)--------------------||
|-5-5-5-7-(7)----|-(7)----------------------|-(7)--------------------||
|-3-3-3-5-(5)----|-(5)----------------------|-(5)--------------------||
|----------------|--------------------------|------------------------||


2nd Chorus
4/4
Gtr I
|------------------------|--------------|-----------------|
|------------------------|--------------|-----------------|
|--9-----9-9-------------|------5--7-7--|-9-9-9-----------|
|--9-----9-9--------5-5--|-7-7--5--7-7--|-9-9-9---5-5-----|
|--7-----7-7--------5-5--|-7-7--3--5-5--|-7-7-7---5-5-----|
|-------------------3-3--|-5-5----------|---------3-3-----|
|
| Gtr II
| ~~~~~~
|-------------------------|--------------|----------------|
|-15b17========(15)r------|--------------|----------------|
|-------------------------|--------------|----------------|
|-------------------------|--------------|----------------|
|-------------------------|--------------|----------------|
|-------------------------|--------------|----------------|


|--------------|---------------|----------------|
|--------------|---------------|----------------|
|------5--7-7--|-9-9-9---------|------5--7-7----|
|-7-7--5--7-7--|-9-9-9----5-5--|-7-7--5--7-7----|
|-7-7--3--5-5--|-7-7-7----5-5--|-7-7--3--5-5----|
|-5-5----------|----------3-3--|-5-5------------|


|---------------|--------------|-------------------------------|
|---------------|--------------|-------------------------------|
|-9-9-9---------|------5--7-7--|-9-9--9------------------------|
|-9-9-9----5-5--|-7-7--5--7-7--|-9-9--9-----------5---5--------|
|-7-7-7----5-5--|-7-7--3--5-5--|-7-7--7-----------5---5--------|
|----------3-3--|-5-5----------|------------------3---3--------|
|
| Gtr II
|---------------|--------------|-----12-----12-------(12)------|
|---------------|--------------|-----15b17--15b17====(15)r-----|
|---------------|--------------|-------------------------------|
|---------------|--------------|-------------------------------|
|---------------|--------------|-------------------------------|
|---------------|--------------|-------------------------------|


|--------------|----------------------------|----------------|
|--------------|----------------------------|----------------|
|------5--7-7--|-9-9--9---------------------|------5--7-7----|
|-7-7--5--7-7--|-9-9--9-----------5---5-----|-7-7--5--7-7----|
|-7-7--3--5-5--|-7-7--7-----------5---5-----|-7-7--3--5-5----|
|-5-5----------|------------------3---3-----|-5-5------------|
|
|--------------|-----12-----12-------(12)---|----------------|
|--------------|-----15b17--15b17====(15)r--|----------------|
|--------------|----------------------------|----------------|
|--------------|----------------------------|----------------|
|--------------|----------------------------|----------------|
|--------------|----------------------------|----------------|


|-----------------------------|--------------|-------------------------------|
|-----------------------------|--------------|-------------------------------|
|-9-9--9----------------------|------5--7-7--|-9-9--9------------------------|
|-9-9--9------------5---5-----|-7-7--5--7-7--|-9-9--9-----------5---5--------|
|-7-7--7------------5---5-----|-7-7--3--5-5--|-7-7--7-----------5---5--------|
|-------------------3---3-----|-5-5----------|------------------3---3--------|
|
|-----12-----12-------(12)---|--------------|-----12-----12-------(12)-------|
|-----15b17--15b17====(15)r--|--------------|-----15b17--15b17====(15)r------|
|----------------------------|--------------|--------------------------------|
|----------------------------|--------------|--------------------------------|
|----------------------------|--------------|--------------------------------|
|----------------------------|--------------|--------------------------------|


Gtr II
~~~~~~~~~~~~~
|--------------|-12------(12)----17b19-17b19r(17)----|------------------------||
|--------------|-15b17===(15)r-----------------------|------------------------||
|--------------|---------------0------------------14-|-(14)b16------(14)-(14)-||
|--------------|-------------------------------------|------------------------||
|--------------|-------------------------------------|------------------------||
|--------------|-------------------------------------|------------------------||
|
| Gtr I
|--------------|-------------------------------------|------------------------||
|--------------|-------------------------------------|------------------------||
|------5--7--9-|--9--------------(9)---------------7-|--(7)-------------------||
|-7-7--5--7--9-|--9--------------(9)---------------7-|--(7)-------------------||
|-7-7--3--5--7-|--7--------------(7)---------------5-|--(5)-------------------||
|-5-5----------|-------------------------------------|------------------------||


Guitar Solo
|--------------------15/--------15/--------15/-------------|
|-12h15p12h15p12h15-(15)-12h15-(15)-12h15-(15)-15p12h15p12-|
|----------------------------------------------------------|
|----------------------------------------------------------|
|----------------------------------------------------------|
|----------------------------------------------------------|
|
|----------------------------------------------------------|
|----------------------------------------------------------|
|--9--------9---------9------------------------------------|
|--9--------9---------9----------------5-------5-----------|
|--7--------7---------7----------------5-------5-----------|
|--------------------------------------3-------3-----------|


|-------15--(15)-------------------------|
|-15-12----------------------------------|
|----------------------------------------|
|--------------------------12-12-14-14---|
|--------x---x-----14-14-----------------|
|--------x---x---------------------------|
|
|--------------------------------------|
|--------------------------------------|
|-----------------5---7-----7----------|
|--7-----7--------5---7-----7----------|
|--7-----7--------3---5-----5----------|
|--5-----5-----------------------------|


|--------------------------------------------15-15-|
|-------------12--12-------------15-15-17-17-------|
|-12-12-14-14--------14-14-16-16-------------------|
|--------------------------------------------------|
|--------------------------------------------------|
|--------------------------------------------------|
|
|--------------------------------------------------|
|--------------------------------------------------|
|--9-----9-----9-----------------------------------|
|--9-----9-----9-----------------5-----5-----------|
|--7-----7-----7-----------------5-----5-----------|
|--------------------------------3-----3-----------|


|-[17]b19==(17)r(17)b19-(17)--------------------12--------------------------------|
|----------------------------[15]b17-(15)-15b17----15-12--------------------------|
|--------------------------------------------------------14-14b16r(14)p12---------|
|-------------------------------------------------------------------------14------|
|---------------------------------------------------------------------------------|
|---------------------------------------------------------------------------------|
|
|---------------------------------------------------------------------------------|
|---------------------------------------------------------------------------------|
|--------------------------------------5------------7--------7--------------------|
|---7-------------7--------------------5------------7--------7--------------------|
|---7-------------7--------------------3------------5--------5--------------------|
|---5-------------5---------------------------------------------------------------|


|--------------------------------------------------------------------|
|-14b15==(14)r(14)-12-----14b15==(14)r(14)-12----14b15==(14)r(14)-12-|
|-14b15==(14)r(14)-12-----14b15==(14)r(14)-12----14b15==(14)r(14)-12-|
|---------------------14----------------------14---------------------|
|--------------------------------------------------------------------|
|--------------------------------------------------------------------|
|
|--------------------------------------------------------------------|
|--------------------------------------------------------------------|
|--9------------9------9---------------------------------------------|
|--9------------9------9----------------------5--5-------------------|
|--7------------7------7----------------------5--5-------------------|
|---------------------------------------------3--3-------------------|


~~~
|-----------------------|
|-----------------------|
|----0----1---2--3-[4]--|
|-14--------------------|
|-----------------------|
|-----------------------|
|
|-----------------------|
|-----------------------|
|-----------5----7--7---|
|--7---7----5----7--7---|
|--7---7----3----5--5---|
|--5---5----------------|


|------------------------------------------------------|
|---------------------------------------------12-15p12-|
|----7h9p7-------9h11p9-------12h14p12----/12----------|
|-/9-------9s11---------11s14----------13--------------|
|------------------------------------------------------|
|------------------------------------------------------|
|
|------------------------------------------------------|
|------------------------------------------------------|
|--9---9------9----------------------------------------|
|--9---9------9------------------5---------5-----------|
|--7---7------7------------------5---------5-----------|
|--------------------------------3---------3-----------|


|--------------------------------------------19h22p19-|
|-----15h17p15-----17h20p17-----20h22p20-/20----------|
|-/16----------/19----------/21-----------------------|
|-----------------------------------------------------|
|-----------------------------------------------------|
|-----------------------------------------------------|
|
|-----------------------------------------------------|
|-----------------------------------------------------|
|----------------------5------------7------7----------|
|---7-----7------------5------------7------7----------|
|---7-----7------------3------------5------5----------|
|---5-----5-------------------------------------------|


~~~~~~~~~~~~
|------------22--------------------------|
|-22b24-(22)-----22b24==(22)r-----22b24==|
|----------------------------------------|
|----------------------------------------|
|----------------------------------------|
|----------------------------------------|
|
|----------------------------------------|
|----------------------------------------|
|--9------9---9--------------------------|
|--9------9---9--------------5-5---------|
|--7------7---7--------------5-5---------|
|----------------------------3-3---------|


~~~~
|-----------------------------------------|---------22--22b24==(22)-----(22)r---|
|-(22)r----------------------------20-22-|-22b24--------------------------------|
|--------------------------19-20-21-------|-------------------------------------|
|-----------------19-20-21----------------|-------------------------------------|
|-----------19-22-------------------------|-------------------------------------|
|-----------------------------------------|-------------------------------------|
|
|-----------------------------------------|-------------------------------------|
|-----------------------------------------|-------------------------------------|
|------------5-----------7-----7----------|--9----9--9--------------------------|
|---7----7---5-----------7-----7----------|--9----9--9-------------5-5----------|
|---7----7---3-----------5-----5----------|--7----7--7-------------5-5----------|
|---5----5--------------------------------|------------------------3-3----------|


|--------------------------------------19-20-22-|
|------------------22-(22)----19-20-22----------|
|------------19------------21-------------------|
|-17-19---17----19------------------------------|
|-----------------------------------------------|
|-----------------------------------------------|
|
|-----------------------------------------------|
|-----------------------------------------------|
|----------------5-------------7-----7----------|
|--7----7--------5-------------7-----7----------|
|--7----7--------3-------------5-----5----------|
|--5----5---------------------------------------|


|-22b24-(22)---22b24--22b24-22b24r(22)-19-|
|-----------------------------------------|
|-----------------------------------------|
|-----------------------------------------|
|-----------------------------------------|
|-----------------------------------------|
|
|-----------------------------------------|
|-----------------------------------------|
|--9---------9--9-------------------------|
|--9---------9--9-----------5------5------|
|--7---------7--7-----------5------5------|
|---------------------------3------3------|


|-22-20-19-17-20-19-17-------19h20p19-17-------------------|
|----------------------20-19-------------20----------------|
|-------------------------------------------16p15h16-14----|
|-------------------------------------------------------17-|
|----------------------------------------------------------|
|----------------------------------------------------------|
|
|----------------------------------------------------------|
|----------------------------------------------------------|
|--------------------5-----------------7-----7-------------|
|--7-----7-----------5-----------------7-----7-------------|
|--7-----7-----------3-----------------5-----5-------------|
|--5-----5-------------------------------------------------|


|--------------------------------------------|
|--------------------------------------------|
|----16p15-16p14--------15h16-14-------------|
|-14--------------17-14----------17-14-----5-|
|----------------------------------------7---|
|--------------------------------------------|
|
|----------------------------------------------|
|----------------------------------------------|
|--9-----9-----9-------------------------------|
|--9-----9-----9-----------------5----5--------|
|--7-----7-----7-----------------5----5--------|
|---------------------------------3----3-------|


|------------------------------|---------------||
|------------------------------|-7b8------(7)--||
|------------------------------|-7b8------(7)--||
|-7-8-7h8p7-5---5-7-(7)-8-9-10-|---------------||
|-------------7----------------|---------------||
|------------------------------|---------------||
|
|------------------------------|---------------||
|------------------------------|---------------||
|---------------5-------7----9-|-9-------------||
|-7---7---------5-------7----9-|-9-------------||
|-7---7---------3-------5----7-|-7-------------||
|-5---5------------------------|---------------||


3rd Vs(ALL GTRS TACET)
|-----|
|-----|
|-----|
|-----|
|-----|
|-----|


Gtr I
PM------------------------------------------|
|-----------|----------------------|----------------------|
|-----------|----------------------|----------------------|
|-----------|-5-5-5-9--9---9-9-9---|-5-5-5-9-9-7-7-7------|
|-----------|-5-5-5-9--9---9-9-9---|-5-5-5-9-9-7-7-7------|
|-----------|-3-3-3-7--7---7-7-7---|-3-3-3-7-7-5-5-5------|
|-----------|----------------------|----------------------|
|
| Gtrs II, III
|-----------|----------------------|----------------------|
|-----------|----------------------|-------8---7----------|
|------7--7-|-------9-(9)----------|-------7---7----------|
|------7--7-|-------9-(9)----------|-------7---7----------|
|------5--5-|-------7-(7)----------|----------------------|
|-----------|-8-8--------------5-7-|-8-8-----------5-7----|


PM-------------------------------------------------------------------|
|----------------------|----------------------|------------------------|
|----------------------|----------------------|------------------------|
|-5-5-5-9--9---9-9-9---|-5-5-5-7--7---7-7-7---|-5-5-5-9--9---9-9-9-----|
|-5-5-5-9--9---9-9-9---|-5-5-5-7--7---7-7-7---|-5-5-5-9--9---9-9-9-----|
|-3-3-3-7--7---7-7-7---|-3-3-3-5--5---5-5-5---|-3-3-3-7--7---7-7-7-----|
|----------------------|----------------------|------------------------|
|
|----------------------|----------------------|------------------------|
|----------------------|----------------------|------------------------|
|-------9-(9)----------|-------7-(7)----------|-------9-(9)------------|
|-------9-(9)----------|-------7-(7)----------|-------9-(9)------------|
|-------7-(7)----------|-------5-(5)----------|-------7-(7)------------|
|-8-8--------------5-7-|-8-8--------------5-7-|-8-8--------------5-7---|


PM-----------------------------------------|
|-------------------|------------------------|
|-------------------|------------------------|
|-5-5-5-9-9-7-7-7---|-5-5-5-9--9---9-9-9-----|
|-5-5-5-9-9-7-7-7---|-5-5-5-9--9---9-9-9-----|
|-3-3-3-7-7-5-5-5---|-3-3-3-7--7---7-7-7-----|
|-------------------|------------------------|
|
|-------------------|------------------------|
|-------8---7-------|------------------------|
|-------7---7-------|-------9-(9)------------|
|-------7---7-------|-------9-(9)------------|
|-------------------|-------7-(7)------------|
|-8-8-----------5-7-|-8-8--------------5-7---|


2/4
PM--|
|----------------|------------|--------||
|----------------|------------|--------||
|-5-5-5-7-(7)----|-(7)--------|-(7)----||
|-5-5-5-7-(7)----|-(7)--------|-(7)----||
|-3-3-3-5-(5)----|-(5)--------|-(5)----||
|----------------|------------|--------||
|
|----------------|------------|--------||
|----------------|------------|--------||
|-------7-(7)----|-(7)--------|-(7)----||
|-------7-(7)----|-(7)--------|-(7)----||
|-------5-(5)----|-(5)--------|-(5)----||
|-8-8------------|------------|--------||


Outro-Chorus
4/4
|---------------|--------------|-------------------------------|
|---------------|--------------|-------------------------------|
|-9-9-9---------|------5--7-7--|-9-9--9------------------------|
|-9-9-9----5-5--|-7-7--5--7-7--|-9-9--9-----------5---5--------|
|-7-7-7----5-5--|-7-7--3--5-5--|-7-7--7-----------5---5--------|
|----------3-3--|-5-5----------|------------------3---3--------|
|
| Gtr II
|---------------|--------------|-----12-----12-------(12)-------|
|---------------|--------------|-----15b17--15b17====(15)r------|
|---------------|--------------|--------------------------------|
|---------------|--------------|--------------------------------|
|---------------|--------------|--------------------------------|
|---------------|--------------|--------------------------------|


|--------------|----------------------------|-----------------|
|--------------|----------------------------|-----------------|
|------5--7-7--|-9-9--9---------------------|------5--7-7-----|
|-7-7--5--7-7--|-9-9--9-----------5---5-----|-7-7--5--7-7-----|
|-7-7--3--5-5--|-7-7--7-----------5---5-----|-7-7--3--5-5-----|
|-5-5----------|------------------3---3-----|-5-5-------------|
|
|--------------|-----12-----12-------(12)---|-----------------|
|--------------|-----15b17--15b17====(15)r--|-----------------|
|--------------|----------------------------|-----------------|
|--------------|----------------------------|-----------------|
|--------------|----------------------------|-----------------|
|--------------|----------------------------|-----------------|


|----------------------------|-----------------------------|
|----------------------------|-----------------------------|
|-9-9--9---------------------|-----------5-------7-7-------|
|-9-9--9-----------5---5-----|-7-7-------5-------7-7-------|
|-7-7--7-----------5---5-----|-7-7-------3-------5-5-------|
|------------------3---3-----|-5-5-------------------------|
|
|-----12-----12-------(12)---|-----------------------------|
|-----15b17--15b17====(15)r--|-----------------------------|
|----------------------------|---------------------7-[9]---|
|----------------------------|-------------------7---------|
|----------------------------|-------------7-(7)-----------|
|----------------------------|-5-5-8-(8)-8-----------------|


|----------------------------------------------|
|----------------------------------------------|
|--9-----9-----9-------------------------------|
|--9-----9-----9----------------5--5-----------|
|--7-----7-----7----------------5--5-----------|
|-------------------------------3--3-----------|
|
|----------------------------------------------|
|----------------------------------------------|
|----------------------------------------------|
|-14-14-14-14-14--14-14-(14)-14-14-14-14-14-14-|
|----------------------------------------------|
|----------------------------------------------|


|--------------------------------------------------|
|--------------------------------------------------|
|-----------------5-------------7-----7------------|
|--7-----7--------5-------------7-----7------------|
|--7-----7--------3-------------5-----5------------|
|--5-----5-----------------------------------------|
|
|--------------------------------------------------|
|--------------------------------------------------|
|------------------------------------14b16r(14)p12-|
|-14-14-14-14-14-14-14-(14)-14-14-14---------------|
|--------------------------------------------------|
|--------------------------------------------------|


|-----------------------------------------------|
|-----------------------------------------------|
|--9-----9-----9--------------------------------|
|--9-----9-----9----------------5--5------------|
|--7-----7-----7----------------5--5------------|
|-------------------------------3--3------------|
|
|----------------------------------------------|
|----------------------------------------------|
|----------------------------------------------|
|-14-14-14-14-14--14-14-(14)-14-14-14-14-14-14-|
|----------------------------------------------|
|----------------------------------------------|


|-----------------------------------------------------------------|
|-----------------------------------------------------------------|
|-----------------------5-----------------7--------7--------------|
|--7-----7--------------5-----------------7--------7--------------|
|--7-----7--------------3-----------------5--------5--------------|
|--5-----5--------------------------------------------------------|
|
|-------12-------------12-------------12----------12--------------|
|----------15p12----------15p12----------15p12-------15-12--------|
|-14b16----------14b16----------14b16----------14----------14b16--|
|-----------------------------------------------------------------|
|-----------------------------------------------------------------|
|-----------------------------------------------------------------|


|--------------------------------------|--------------------------------|
|--------------------------------------|--------------------------------|
|-9-----9--9---------------------------|---------5---7-----7------------|
|-9-----9--9------------5------5-------|-7--7----5---7-----7------------|
|-7-----7--7------------5------5-------|-7--7----3---5-----5------------|
|-----------------------3------3-------|-5--5---------------------------|
|
| ~~~~~~~~
|---------12/--------------12/----------|--------------------------------|
|---12-15-----12-15--15-12-----12-15-12-|--------------------------------|
|---------------------------------------|--------------------------------|
|---------------------------------------|------------------12-12-14-14---|
|---------------------------------------|-x---x----14-14-----------------|
|---------------------------------------|-x---x--------------------------|


|--------------------------------------------------|
|--------------------------------------------------|
|--9-----9-----9-----------------------------------|
|--9-----9-----9-----------------5-----5-----------|
|--7-----7-----7-----------------5-----5-----------|
|--------------------------------3-----3-----------|
|
|--------------------------------------12-12-15-15-|
|-------------12--12-------12-12-15-15-------------|
|-12-12-14-14--------14-14-------------------------|
|--------------------------------------------------|
|--------------------------------------------------|
|--------------------------------------------------|


|----------------------------------------------------------------|------------*|
|----------------------------------------------------------------|------------*|
|----------------------------------5---------7--------7----------|--9--9--9---*|
|--7------------7------------------5---------7--------7----------|--9--9--9---*|
|--7------------7------------------3---------5--------5----------|--7--7--7---*|
|--5------------5------------------------------------------------|------------*|
|
|-17b19=3D=3D(17)r(17)b19-(17)------------12---------------------|------------*|
|--------------------------15b17-(15)----15-12-------------------|------------*|
|----------------------------------------------15-14-12----------|------------*|
|-------------------------------------------------------14-12----|-14-14-14---*|
|-------------------------------------------------------------14-|-14-14-14---*|
|----------------------------------------------------------------|-12-12-12---*|
Tunning: Standard (E A D G B e)
Rock You Like a Hurricane - Scorpions
Tabbed by Nieper
Tuning: Standard

Tab Key:
/ = slide down
* = Palm muting
X = Muted String
[3] = Pinch Harmonic (artificial harmonic) on 3rd fret
~ = Vibrato
17b18r17 = bend 17th fret to 18th then release back to 17
17p15 = pull off from 17th fret to 15th
12h15 = hammer on from 12th fret to 15th
\ = slide up
= = hold bend
T = Tap
T \ T = Tap Slide

Riff A
e|--------------------------|
B|--------------------------|
G|-9-9-9/------------5--7-7-|
D|-9-9-9/--5-5--7-7--5--7-7-|
A|-7-7-7/--5-5--7-7--3--5-5-|
E|---------3-3--5-5---------|

Intro Solo (If you play w/ one guitar then where the 2nd guitar comes in replace
the x with the 12th fret on the b string)

Guitar 1 *Guitar 2 Comes in here
|-0-0-0-0-0-0-0-0-0-0-0-0-0--0--0--0--0--0--0--0--0--0---------------------------|
|-x-x-x-x-x-x-x-x-x-x-x-x-x--x--x--x--x--x--x--x--x--x---------------------------|
|-9-9-9-9-9-9-9-9-9-9-9-9-9--9--9--9--9--9--9--9--9--9--11h12p11-----------------|
|---------------------------------------------------------------14-12------------|
|--------------------------------------------------------------------14-13-12-10-|
|--------------------------------------------------------------------------------|
|
|Guitar 2
|--------------------------------------------------------------------------------|
|--------------------------------------------------------------------------------|
|------------------------/16-16-16-16-16-16-16-16-16-16-14h16p14-----------------|
|---------------------------------------------------------------17-16-14---------|
|-----------------------------------------------------------------------17-15-14-|
|--------------------------------------------------------------------------------|

Guitar 1
|----------/15-14h15p14\12-------15----17b19r17p15-17-|
|----15--------------------15-15b--15b----------------|
|-14b--14b--------------------------------------------|
|-----------------------------------------------------|
|-----------------------------------------------------|
|-----------------------------------------------------|
|
|Guitar 2
|----15----/19-17h19p17\15-------19----22b24r22p19-22-|
|-15b--15b-----------------19-19b--19b----------------|
|-----------------------------------------------------|
|-----------------------------------------------------|
|-----------------------------------------------------|
|-----------------------------------------------------|

Both Guitars
|-22b24-22b24-22b24-22b24r22-19-22-20-19----20-19-------19h20p19----------22\-|
|----------------------------------------22-------22-20----------22p20p19-----|
|-----------------------------------------------------------------------------|
|-----------------------------------------------------------------------------|
|-----------------------------------------------------------------------------|
|-----------------------------------------------------------------------------|

{ Insanely Fast }
|----12---12---12---12---12---12---12--17-12--------------------------------|
|-15b--15b--15b--15b--15b--15b--15b---------15-12---------------------------|
|------------------------------------------------15-14-12-------------------|
|--------------------------------------------------------14-12--------------|
|-------------------------------------------------------------14-13-12------|
|----------------------------------------------------------------------15\\-|

Riff B
|--------------------------------------------------------------------|
|--------------------------------------------------------------------|
|--------------------------------------------------------------------|
|-5-5-5-9-9-9-9-9--5-5-5-9-9-7-7-7--5-5-5-9-9-9-9-9--5-5-5-7-7-7-7-7-|
|-3-3-3-7-7-7-7-7--3-3-3-7-7-5-5-5--3-3-3-7-7-7-7-7--3-3-3-5-5-5-5-5-|
|--------------------------------------------------------------------|
* * * * * * * * * * * * * * * * * * * * * * * * * * * * * * * *

Riff C
|---------------------------------------------|
|---------------------------------------------|
|--------9/---------9-7---------9/---------7--|
|--------9/---------9-7---------9/---------7--|
|-XX[3]~-7/--XX[3]~-7-5--XX[3]~-7/--XX[3]~-5--|
|---------------------------------------------|

Solo

*E Chord *A chord
|----12---12---12---12-[17b18r17b19r17p15]----|
|-15b--15b--15b--15b--------------------------|
|-----------------------------------------14b-| *the 14th note is slowly bent down
|---------------------------------------------|
|---------------------------------------------|
|---------------------------------------------|

T \ T T \ T T \ T
|-----------------------------------------------------------------------------|
|-12h15p12h15p12-17\19-12h15p12h15p12-17\19-12h15p12h15p12-17\19-12h15p12-----|
|-----------------------------------------------------------------------------|
|-----------------------------------------------------------------------------|
|-----------------------------------------------------------------------------|
|-------------------------------------------------------------------------21//|

|---------------------------------------12-12-[17b18r17b19r17p15]-|
|----------------------------12-12-15-15--------------------------|
|-----------------12-12-14-14-------------------------------------|
|------12-12-14-14------------------------------------------------|
|-14-14-----------------------------------------------------------|
|-----------------------------------------------------------------|
* * * * * * * *

|----------------12---------------------------|
|-15b16r15b17r15---15-12----------------------|
|------------------------14b15r14b16r14p12----|
|------------------------------------------14-|
|---------------------------------------------|
|---------------------------------------------|

|-------------------------|
|-12b13r12b14r12-------12-|
|-14b15r14b16r14p12----12-| *Double bends are kind of ridiculous so good luck lol
|-------------------14----|x3
|-------------------------|
|-------------------------|

|---------------------------------------------------------------|
|----------------5p3--8p5--10p8---15p12---17p15---20p17---22p20-|
|-0-1-2-3-[4]~-\4---\7---\9----\14-----\16-----\19-----\21------|
|---------------------------------------------------------------|
|---------------------------------------------------------------|
|---------------------------------------------------------------|

|-------22---------------------------------------------------22-22b23r22b24r22-22b24r22\-|
|-22b24===22b24r22-22b24r22/----------------------20-22-22b24----------------------------|
|-----------------------------------------19-20-21---------------------------------------|
|---------------------------------19-20-21-----------------------------------------------|
|----------------------------19-22-------------------------------------------------------|
|----------------------------------------------------------------------------------------|

|------------------------19-20-22-22b24-22b24-22b24-22b24-|
|-------------22-19-20-22---------------------------------|
|--------19-19--------------------------------------------|
|---19-17-------------------------------------------------|
|-17------------------------------------------------------|
|---------------------------------------------------------|

{ REALLY FAST }
|-19-22-20p19--20p19-----19h20p19-----19\-|
|------------22-----22-20--------22-20----|
|-----------------------------------------|
|-----------------------------------------|
|-----------------------------------------|
|-----------------------------------------|

|-----------------|
|-----------------|
|-14/15\14p12--12-|
|------------14---|x3
|-----------------|
|-----------------|

|------------------------|
|---------------------7b-|
|-2h3p2p0-0-2-3-4-[5]-7b-| *Again another slow bend and thats it!
|--------2---------------|
|------------------------|
|------------------------|

End Solo (Which I have no idea if its right but it sounds somewhat close to me...)

|-------0-0-0-0-0-0-0-0-0-0-0-0-0-0-0-0-0-0-0-0-0-0-0-0-0-0-0-0-|
|----(5)5-5-5-5-5-5-5-5-5-5-5-5-5-5-5-5-5-5-5-5-5-5-5-5-5-5-5-5-|
|-(5)-----------------------------------------------------------|
|---------------------------------------------------------------|
|---------------------------------------------------------------|
|---------------------------------------------------------------|

T \ T T \ T T \ T T \ T
|-----------------------------------------------------------------------------------|
|-17\19-12h15p12h15p12-17\19-12h15p12h15p12-17\19-12h15p12h15p12-17\19-12h15p12-----|
|-----------------------------------------------------------------------------------|
|-----------------------------------------------------------------------------------|
|-----------------------------------------------------------------------------------|
|-------------------------------------------------------------------------------21//|

|---------------------------------------12-12-[17b18r17b19r17p15]-|
|----------------------------12-12-15-15--------------------------|
|-----------------12-12-14-14-------------------------------------|
|------12-12-14-14------------------------------------------------|
|-14-14-----------------------------------------------------------|
|-----------------------------------------------------------------|

{ Insanely Fast }
|----12--17-12--------------------------------|
|-15b---------15-12---------------------------|
|------------------15-14-12-------------------|
|--------------------------14-12--------------|
|-------------------------------14-13-12------|
|---------------------------------------15\\--|

Song Order
_______________________________________________________________________
|Intro : Riff A x2 |
| Intro Solo (With Riff A in background for 7 more times) |
|-----------------------------------------------------------------------|
|Verse : Riff B x4 (Ends on the D-Chord or The 5th fret root chord |
| with a pick slide into the chorus) |
|-----------------------------------------------------------------------|
|Chorus: Riff A x4 |
|-----------------------------------------------------------------------|
|Verse : Riff B x2 |
| Riff C x2 (Ends on the D-Chord or The 5th fret root chord with |
| a mini solo riff that I couldn't pick out... Sorry!) |
|-----------------------------------------------------------------------|
|Chorus: Riff A x8 |
|-----------------------------------------------------------------------|
|Solo : Solo (With Guitar 2 playing an E chord |
| followed by an A chord for the opening bar of solo [*] |
| Then Riff A in background x8) |
|-----------------------------------------------------------------------|
|Verse : Quiet |
| Riff C x2 |
|-----------------------------------------------------------------------|
|Chorus: Riff A x8 |
| End Solo (Which Starts after the 4th Riff A) |
|-----------------------------------------------------------------------|
|Ends on 3 E chords |
_______________________________________________________________________|
Song info
Rock You Like A Hurricane
Scorpions
2001
  • Rock
  • Hard Rock
Alternative tracks
Similar songs
Aint It Fun - Guns N' Roses
I Remember You - Skid Row

Hi! Hope you enjoy backing track experience.
If you want to help us in the development of the project, feel free to donate!