Send Me An Angel - Scorpions
00:00 / 00:00
Tabs and lyrics
Tunning: Standard (E A D G B e)
Tuned down one half step

I know that there are mistakes in the solo, but I think its sounds good
with the mistakes


Fig.1

Em Cmaj7 D Bm7
e|---0-------0----------------------------------------------|
B|-----0-------0------3-------3-----------------------------|
G|-------0-------0------2-------2---------------------------|
D|-2----------------------4-------4-------------------------|
A|---------3--------5-------2-------------------------------|
E|----------------------------------------------------------|

Em Cmaj7 D
e|---0-------0----------------------------------------------|
B|-----0-------0-----------3--------------------------------|
G|-------0-------0-----2-------2----------------------------|
D|-2-----------------4---4---4---4--------------------------|
A|---------3-------5----------------------------------------|
E|----------------------------------------------------------|

Fig.2:

Em Cmaj7 Em/B G6
e|---0-------0-------0-------0------------------------------|
B|-----0-------0-------0-------0----------------------------|
G|-------0-------0-------0-------0--------------------------|
D|-2--------------------------------------------------------|
A|---------3-------2----------------------------------------|
E|-------------------------3--------------------------------|

Em Cmaj7 D
e|---0-------0----------------------------------------------|
B|-----0-------0-----------3--------------------------------|
G|-------0-------0-----2-------2----------------------------|
D|-2-----------------4---4---4---4--------------------------|
A|---------3-------5----------------------------------------|
E|----------------------------------------------------------|

Fig.3:

F#m E
e|---------2---------------0--------------------------------|
B|-----2-------2-------0-------0----------------------------|
G|---2---2---2---2---1---0---1---1--------------------------|
D|-4---------------2----------------------------------------|
A|----------------------------------------------------------|
E|----------------------------------------------------------|

C#m D E
e|----------------------------------------------------------|
B|---------2------------------------------------------------|
G|-----1-------1--------2-------4---------------------------|
D|---2---2---2---2----4---4---6---6-------------------------|
A|-4----------------5-------7-------------------------------|
E|----------------------------------------------------------|

Fig.4:

F#m Dmaj7 E C#m7
e|---2-------2----------------------------------------------|
B|-----2-------2-----5-------5------------------------------|
G|-------2-------2-----4-------4----------------------------|
D|-4-------0-------------6-------6--------------------------|
A|-----------------7-------4--------------------------------|
E|----------------------------------------------------------|

F#m Dmaj7 E
e|---2-------2-------------0--------------------------------|
B|-----2-------2-------0-------0----------------------------|
G|-------2-------2---1---1---1---1--------------------------|
D|-4-------0-------2----------------------------------------|
A|----------------------------------------------------------|
E|----------------------------------------------------------|

Fig.5:

F#m Dmaj7 F#m/C# A6
e|---2-------2-------2-------2------------------------------|
B|-----2-------2-------2-------2----------------------------|
G|-------2-------2-------2-------2--------------------------|
D|-4-------0------------------------------------------------|
A|-----------------4-------0--------------------------------|
E|----------------------------------------------------------|

F#m Dmaj7 E
e|---2-------2-------------0--------------------------------|
B|-----2-------2-------0-------0----------------------------|
G|-------2-------2---1---1---1---1--------------------------|
D|-4-------0-------2----------------------------------------|
A|----------------------------------------------------------|
E|----------------------------------------------------------|

Fig.6:

G#m F#
e|---------4---------------2--------------------------------|
B|-----4-------4-------2-------2----------------------------|
G|---4---4---4---4---3---3---3---2--------------------------|
D|-6---------------4----------------------------------------|
A|----------------------------------------------------------|
E|----------------------------------------------------------|

D#m E F#
e|----------------------------------------------------------|
B|---------4------------0--------2--------------------------|
G|-----3-------3------1---1----3---3------------------------|
D|---4---4---4---4--2--------4------------------------------|
A|-6--------------------------------------------------------|
E|----------------------------------------------------------|

--------------------------------------------------------------------------
Theres an keyboard through the song.It plays the normal chords.
Gtr.1=acoustic guitar(all Rhytmn-figures)
Gtr.2=electric guitar[clean](all powerchords[w/distortion] so
the chord-symbols, fills, solos)


[Intro w/gtr.1:]
Fig.1 (4x)


[Verse I w/gtr.1:]
Fig.2 (4x)

The wise man said: "just walk this way
E5 (x688xx)
To the dawn of the light
The wind will blow into your face
As the years pass you by
E5
Hear this voice from deep inside
It's the call of your heart
E5
Close your eyes and you will find
A passage out of the dark"


[Chorus] w/gtr.1:
Fig.3 (2x)

E5
Here I am will you send me an angel
(here I am) G----------/11---
E5
Here I am in the land of the morning star
(here I am)


[Interlude] w/gtr.1:
Fig.4(2x)

e|------------|
B|------------|
G|-9----/11---|
D|---11-------|
A|------------|
E|------------|


[Verse II] w/gtr.1:
Fig.5 (2x)

The wise man said: "Just find your place
G------10b11-------
In the eye of the storm
F#5 (x,9,11,11,x,x)
Seek the roses along the way
Just beware of the thorns"

[Chorus]
Fig.6(2x)

G#5 F#5 D#5 E F#
Here I am will you send me an angel
(here I am) (solo starting here)
G#5 F#5 D#5 E F# (e5)
Here I am in the land of the morning staaa aaa aa aa aa aar
(here I am)

[Solo]

Fig.1(2x)
e|-----------------------------------------------------------------|
B|------12--13--15--12--10--12--13--12--15b17--15b17--15b16r17-----|
G|-----------------------------------------------------------------|
D|-----------------------------------------------------------------|
A|-----------------------------------------------------------------|
E|--/12------------------------------------------------------------|

e|----------------------------------------------------|
B|--15----------12--13--15--13--12--10--12--13--12----|
G|------14--------------------------------------------|
D|----------14----------------------------------------|
A|----------------------------------------------------|
E|----------------------------------------------------|

e|--22b24--22b24--22b24r22--20--19--20--17--20--19-fade-out-----|
B|--------------------------------------------------------------|
G|--------------------------------------------------------------|
D|--------------------------------------------------------------|
A|--------------------------------------------------------------|
E|--------------------------------------------------------------|


[Verse III] w/gtr.1:
Fig.2 (4x)

The wise man said: "Just raise yor hand
And reach out for the spell
G---9--7--4(1/4 bend)--7--9--
e|Find the door to the promised land
B|Just believe in yourself
G|Hear this voice from deep inside
D|It's the call of your heart
A|Close your eyes and you will find
E| G---9h12h14b15--12p9--
The way out of the dark"


[Chorus] w/gtr.1(Repeat 4x and fade out):
Fig.3(8x)

F#5 E5 C#5 D5 E5
Here I am will you send me an angel
(here I am)
G#5 F#5 D#5 E F#
Here I am in the land of the morning star
(here I am)


[Outro]-Solo after the fourth time:

e|------------------------------------------------|
B|--14----------17p15p14--------------------------|
G|------------------------------------------------|
D|------------------------------------------------|
A|------------------------------------------------|
E|------------------------------------------------|

e|------------------------------------------------|
B|--14----------17p15p14--------------------------|
G|------------------------------------------------|
D|------------------------------------------------|
A|------------------------------------------------|
E|------------------------------------------------|

w/bar................................
e|--------------------------------------------------------------|
B|-17b19-17b19-17----17b19--------------------------------------|
G|----------------18--------------------------------------------|
D|--------------------------------------------------------------|
A|--------------------------------------------------------------|
E|--------------------------------------------------------------|

.......
e|-----------------------20b22------------19--16--17-16---------|
B|-21b22----------19-22---------------------------------19------|
G|---------------------------------------------------------18---|
D|--------------------------------------------------------------|
A|--------------------------------------------------------------|
E|--------------------------------------------------------------|

............................
e|--------------------------12----------------------20b21---------|
B|-17-19-----------------------14b16---------17-------------------|
G|----------------------------------------------------------------|
D|----------------------------------------------------------------|
A|----------------------------------------------------------------|
E|----------------------------------------------------------------|

.....
e|-----17-16-17--17-16------------------------------------------|
B|---------------------19---------------------------------------|
G|--------------------------------------------------------------|
D|--------------------------------------------------------------|
A|--------------------------------------------------------------|
E|--------------------------------------------------------------|


************************************

| h Hammer-on
| p Pull-off
| r Release
| b Bend
| / Slide up

************************************
Tunning: Standard (E A D G B e)
[Intro]

Em Cmaj7 D Bm Em Cmaj7 D x4


Rhy.Fig. for Intro: playing x4

Em Cmaj7 D Bm7 Em Cmaj7 D
e|---0-------0--------------------- --0-------0---------------------|
B|-----0-------0-----3-------3----- ----0-------0-----------3-------|
G|-------0-------0-----2-------2--- ------0-------0-----2-------2---|
D|-2---------------------4-------4- 2-----------------4---4---4---4-|
A|---------3-------5-------2------- --------3-------5---------------|
E|--------------------------------- --------------------------------|


[1st Verse]

Em Cmaj7 Em/B Em/G Em Cmaj7 D
e|---0-------0-------0-------0----- --0-------0-----------------------|
B|-----0-------0-------0-------0--- ----0-------0-----------3---------|
G|-------0-------0-------0-------0- ------0-------0-----2-------2-----|
D|-2------------------------------- 2-----------------4---4---4---4---|
A|---------3-------2--------------- --------3-------5-----------------|
E|--------------------------3------ ----------------------------------|

Em Cmaj7 Em/B Em/G
The wise man said just walk this way
Em Cmaj7 D
To the dawn of the light
Em Cmaj7 Em/B Em/G
The wind will blow into your face
Em Cmaj7 D
As the years pass you by
Em Cmaj7 Em/B Em/G
Hear this voice from deep inside
Em Cmaj7 D
It's the call of your heart
Em Cmaj7 Em/B Em/G
Close your eyes and your will find
Em Cmaj7 D
the passage out of the dark


[chorus] 2 times (The 2nd time with * after the last E or star__)

F#m E
e|-----------2------------------------------0------------|
B|-----2-------------2------------0---------------0------|
G|---2----2-------2----2------1------1---------1----1----|
D|-4-----------------------2-----------------------------|
A|-------------------------------------------------------|
E|-------------------------------------------------------|

C#m D E
e|-------------------------------------------------------|
B|---------------2---------------------------------------|
G|--------1------------1-----------2-----------4---------|
D|-----2----2--------2----2------4----4------6-----6-----|
A|--4--------------------------5-----------7-------------|
E|-------------------------------------------------------|

F#m Dmaj7 E C#m7
e|* -2----------2-----------------------|
B|-----2----------2--------5-------5----|
G|-------2----------2-------4-------4---|
D|--4------------------------6-------6--|
A|------------5----------7------4-------|
E|--------------------------------------|

F#m E C#m
Here I am
D E
Will you send me an angel
F#m E C#m
Here I am
D E * (F#m+Dmaj7+E+C#m7) only at 2nd time
In the land of the morning star_______________


[Break]

(F#m-Dmaj7-E)-(F#m-Dmaj7-E-C#m7)-(F#m-Dmaj7-E) x2


The Break is:

F#m Dmaj7 E (play *2) F#m Dmaj7 E C#m7
e|-----2--------2-------------------- -----2--------2------------------|
B|------2--------2------------5------ ------2--------2------5----5-----|
G|-------2--------2------4--------4-- -------2--------2------4----4----|
D|--4------------------6---6----6---6 --4---------------------6----6---|
A|-----------5-------7--------------- ------------5-------7----4-------|
E|----------------------------------- ---------------------------------|
The part (F#m-Dmaj7-E) tab is the same at the beginning and end.


[Verse 2]

(F#m-Dmaj7-F#m/C#-F#m/A-F#m-Dmaj7-E)

e|------2----------2---------2---------2--- -----2----------2-----------------------|
B|--------2----------2---------2--------2-- -------2----------2------------5--------|
G|----------2----------2---------2-------2- ----------2---------2-----4---------4---|
D|--4-------------------------------------- --4----------------------6---6----6---6-|
A|--------------5----------4--------------- --------------5---------7---------------|
E|----------------------------------5------ ----------------------------------------|


F#m Dmaj7 F#m/C# F#m/A
The wise man said just find your place
F#m Dmaj7 E
In the eye of the storm
F#m Dmaj7 F#m/C# F#m/A
Seek the roses along the way,
F#m Dmaj7 E
Just beware of the thorns


[Chorus]

G#m F# D#m F#
e|--------4-------------2------- ---------------------------------|
B|----4-------4-----2-------2--- -------2-------------------------|
G|---4--4---4---4--3--3---3---3- ---3------3---------4-------6----|
D|--6-------------4-------------- --4--4---4----4----6---6---8--8-|
A|------------------------------ -6----------------7-------9------|
E|------------------------------ ---------------------------------|
The chorus contains 3 parts 1 (G#m+F#) 2 (D#m+F#) and 3 (G#m+F#)
The tab of part 3 is the same for 1 except change the 4 on the 1st string (E1)
to 2.


G#m F# D#m
Here I am
E F#
Will you send me an angel
G#m F# D#m
Here I am
E F# Em
In the land of the morning star


[Solo]

Em-Cmaj7-D-Bm7-Em-Cmaj7-D 2 times}


[verse 3]

Em C D Bm
The wise man said just raise your hand
Em C D
And reach out for the spell
Em C D Bm
Find the door to the promised land
Em C D
Just believe in yourself
Em C D Bm
Hear this voice from deep inside
Em C D
It's the call of your heart
Em C D Bm
Close your eyes and you will find
Em C D
the way out of the dark


[Chorus]

F#m E C#m
Here I am
D E
Will you send me an angel
F#m E C#m
Here I am
D E F#m
In the land of the morning star

Fading out..




This is one of SCORPIONS hit songs and it proves that Rudulf Schenker is a
real guitar god, so try to play the tabs as fast as possible.

From: Assad AL-Mehrizi
Email: Desertson@hotmail.com
Subject: Send Me An Angel <>

******

This part starts after (star____). It must be played twice.
Part 1 chords
e|-------------------------------------------------------------------------------|
B|-------------------12-13-15-13-12-----12--13-----------4----------0--------2---|
G|-----------------------------------14------------------3----1-------1---3----3-|
D|---------14~~~~----------------------------------------4----2-----------4------|
A|-------------------------------------------------------------------------------|
E|-------------------------------------------------------------------------------|

Part 2 Part 1
e|------------------------------------------ ------------------------------|
B|---12~~~~---15Fb--15Fb--15Fb(15)-15----X-- -------12-13-15-13-12---12-13-|
G|------------------------------------14--X- ----------------------14------|
D|------------------------------------------ -14~~~~-----------------------|
A|------------------------------------------ ------------------------------|
E|------------------------------------------ ------------------------------|

Part 2
e|--------22Fb-22Fb-22Fb~~--22-20-19-20---20----|
B|-12~~~~-------------------------------22------|
G|----------------------------------------------|
D|----------------------------------------------|
A|----------------------------------------------|
E|----------------------------------------------|

The chords remain the same Part 1:(Em-Cmaj7-D-Bm7) then Part 2: (Em-Cmaj7-D)



************************************

| ~ Vibrato
| Fb Full Bend
| X Rake Strings

************************************
Tunning: Standard (E A D G B e)
#----------------------------------PLEASE NOTE---------------------------------#
#This file is the author's own work and represents their interpretation of the #
#song. You may only use this file for private study, scholarship, or research. #
#------------------------------------------------------------------------------#

SEND ME AN ANGEL
SCORPIONS


INTRO (and verses):

-----------------------------------------------------------
-----------------------------------------------------------
------8-----------8-----------6------------6---------------
---------8-----------8-----------6------------6------------
---6--------9-----------9-----------8------------8---------
---------------7-----------9------------6------------------

----------------------------------------------------
----------------------------------------------------
------8-----------8--------------------6------------
---------8-----------8-----------6-----------6------
---6--------9-----------9-----8-----8-----8-----8---
---------------7-----------9------------------------

(the actual timing I know nothing about (goes for the whole
tab). listen to the record to get the hang of it (Oh,where
did I see that quote before:-) ))

CHORUS (and outro):
(Powerchords used in the 2nd & 3rd chorus)

F5 (x,8,10,10,x,x) Eb5 (x688xx)
--------------------------------------------------------
-----------------9--------------------------8-----------
---------10-------------10------------8-----------8-----
-----10------10-----10------10-----8-----8-----8-----8--
--8-----------------------------6-----------------------
--------------------------------------------------------

C5 (x355xx) (x466xx)-->C#5 Eb5 (x688xx)
------------------------------------------------------
--------------4---------------------------------------
--------5-----------5-----------6-----------8---------
-----5-----5-----5-----5-----6-----6-----8-----8------
--3-----------------------4-----------6---------------
------------------------------------------------------

F5 Eb5
--------------------------------------------------------
-----------------9--------------------------8-----------
---------10-------------10------------8-----------8-----
-----10------10-----10------10-----8-----8-----8-----8--
--8-----------------------------6-----------------------
--------------------------------------------------------

C5 C#5 Eb5
------------------------------------------------------
--------------4---------------------------------------
--------5-----------5-----------6-----------8---------
-----5-----5-----5-----5-----6-----6-----8-----8------
--3-----------------------4-----------6-----------8*-
------------------------------------------------------

When the last note (marked "*") is played the verse riff starts over
again (witch means you'll have to have a friend tooling along on a
second guitar, or, if you live nearby a neuclear plant, you might
be able to play two guitars at once :-).) In the outro, just skip the
marked (*) note and start from the top.

SOLO (can you tab it better? U know where to find me...) :

-----------------------------------------------------------------
-------11--12--14--12--11--9--11--12--11--15b16--15b16--15b16r15-
-----------------------------------------------------------------
-----------------------------------------------------------------
-----------------------------------------------------------------
--/11------------------------------------------------------------

----------------------------------------------------
--12----------11--12--14--12--11--9--11--12--11-----
------13--------------------------------------------
----------13----------------------------------------
----------------------------------------------------
----------------------------------------------------

--22b23--22b23--22b23r22--19--18--16--19--16--19--18--
------------------------------------------------------
------------------------------------------------------
------------------------------------------------------
------------------------------------------------------
------------------------------------------------------


Chords and Tab above the lyrics for another
guitar [say Guitar II :-)]

(Intro)

VERSE I:
The wise man said: "just walk this way
Eb5 (Fretting, low to high: x688xx)
To the dawn of the light
The wind will blow into your face
As the years pass you by
Eb5
Hear this voice from deep inside
It's the call of your heart
Eb5
Close your eyes and you will find
A passage out of the dark"

CHORUS:
Here I am will you send me an angel
(here I am) G----------/10---
Here I am in the land of the morning star
(here I am)

VERSE II:
The wise man said: "Just find your place
G------9b10-------
In the eye of the storm
F5 (x,8,10,10,x,x)
Seek the roses along the way
Just beware of the thorns"

CHORUS:
(Powerchords above "chorus"-Tab played by Guitar II)
(Guitar I as in 1st chorus)

Here I am will you send me an angel
(here I am) (solo starting here)
Here I am in the land of the morning staaa aaa aa aa aa aar
(here I am)

(Solo)

VERSE III:
The wise man said: "Just raise yor hand
And reach out for the spell
G---8--6--3(1/4 bend)--6--8--
Find the door to the promised land
Just believe in yourself
Hear this voice from deep inside
It's the call of your heart
Close your eyes and you will find
G---8h11h13b14--11p8--
The way out of the dark"

CHORUS:
(Powerchords above "chorus"-Tab played by Guitar II)
(Guitar I as in 1st chorus)

Here I am will you send me an angel
(here I am)
Here I am in the land of the morning star
(here I am)

(Outro)
(sorry, have to figure that one out for yourself.
There's no such thing as a free lunch... :-). )
(perhaps I'll have a go at it later if noone else
helps me out)

(Any mistakes?, are the lyrics off?(They aren't really
mine anyway), Ooops! Let me know and I'll see what I
can do :-) )

Does it look a bit blurry? Figure it out for yourself,
it's not really that hard. No guarantee for the accuracy.
Song info
Send Me An Angel
Scorpions
2001
  • Pop
  • Rock
  • Ballad
  • Pop Rock
Alternative tracks
Similar songs
Everything - Michael Bublé
October - U2
Shes A Woman - Jeff Beck
The Boys Of Summer - Don Henley

Hi! Hope you enjoy backing track experience.
If you want to help us in the development of the project, feel free to donate!