Little Lovers So Polite - Silversun Pickups
00:00 / 00:00
Tabs and lyrics
Tunning: Standard (E A D G B e)
G: e----- D: e----- F#: e----- E: e-----|
B----- B----- B----- B-----|
G----- G--7-- G----- G-----|
D--5-- D--7-- D--4-- D--2--|
A--5-- A--5-- A--4-- A--2--|
D--5-- D--0-- D--4-- D--2--|


e--------------------------------------------------------------------|
B--------------------------------------------------------------------|
G--9-9-7-7-6-6-4-4-6-6-4-4-6-6-7-7-9-9-7-7-6-6-4-4-6-6-4-4-6-6/7\6-7-|
D--------------------------------------------------------------------|
A--------------------------------------------------------------------|
D--------------------------------------------------------------------| Repeat 2 times.

G
So much for the light show
D
Pissin' on while pissin' off
G
Suckin' in a smokescreen
D
Sellin' of a loose nit dream

e--------------------------------------------------------------------|
B--------------------------------------------------------------------|
G--9-9-7-7-6-6-4-4-6-6-4-4-6-6-7-7-9-9-7-7-6-6-4-4-6-6-4-4-6-6/7\6-7-|
D--------------------------------------------------------------------|
A--------------------------------------------------------------------|
D--------------------------------------------------------------------| Repeat 2 times.

G
Foldin' up the skyline
D
Agreein' on a steep decline
G
Can't control this airplane
D
Bein' caught is just the same
G
Headed for a lowlife
D
Little lover's so polite
G
Wakin' up the core needs
D
With smelly salts and faulty means

e--------------------------------------|
B--------------------------------------|
G--9-9-7-7-6-6-4-4-6-6-4-4-6-6-7-7-9-9-|
D--------------------------------------|
A--------------------------------------|
D--------------------------------------|
Did the bones collide?

e--------------------------------------|
B--------------------------------------|
G--9-9-7-7-6-6-4-4-6-6-4-4-6-6-7-7-9-9-|
D--------------------------------------|
A--------------------------------------|
D--------------------------------------|
Who let the bones collide?

e--------------------------------------------------------------------|
B--------------------------------------------------------------------|
G--9-9-7-7-6-6-4-4-6-6-4-4-6-6-7-7-9-9-7-7-6-6-4-4-6-6-4-4-6-6/7\6-7-|
D--------------------------------------------------------------------|
A--------------------------------------------------------------------|
D--------------------------------------------------------------------|
Why did the bones collide?

G F# E F#
It's always the same way for me
G F# E
Ending in the same way.

G
So much for the showdown
D
Keepin' up while keepin' off
G
Chokin' on the cold feet
D
Rollin' up the plastic sleeves
G
Can't control the slow ride
D
Little lover's so polite
G
Turnin' off the low light
D G
Tell me did the bones collide
The bones collide
D
The bones collide
G
Little lover's so polite
So polite
D
So polite
Turnin' off the low light

G F# E
It’s always the same way for me
G F# E
Blue turns soft with time
G F# E
Broke remains, an everyday disguise
G F# E
Ending in the same way, the same way

Solo:
e-----------------------------------------|
B-----------------------------------------|
G--------------------4-2------2---2-------|
D---------------------------4---4---4-2---|
A--2h5-5---2h5-7-2h5--------------------5-|
D-----------------------------------------|

e-----------------------------------------|
B-----------------------------------------|
G--------------------4-2------2-0h2-4-2-4-|
D---------------------------4-------------|
A--2h5-5---2h5-7-2h5----------------------|
D-----------------------------------------|

e-----------------------------------------------|
B-----------------------------------------------|
G--4p2--------------4p2----0h4-7-4-----2----2---|
D-----4p2--0h2p0-0-----4p2-----------4----4-----|
A--------5------2---------5-------------------5-|
D-----------------------------------------------|

e-----------------------------------------------|
B-----------------------------------------------|
G--4p2--------------4p2----0h4-7-4-----2----2-4-|
D-----4p2--0h2p0-0-----4p2-----------4----4-----|
A--------5------2---------5---------------------|
D-----------------------------------------------|

e--------------------------------------------------------------------|
B--------------------------------------------------------------------|
G--9-9-7-7-6-6-4-4-6-6-4-4-6-6-7-7-9-9-7-7-6-6-4-4-6-6-4-4-6-6/7\6-7-|
D--------------------------------------------------------------------|
A--------------------------------------------------------------------|
D--------------------------------------------------------------------| Repeat 4 times.

G
Tell me did the bones collide
Bones collide
D
Bones collide
G
Little lover's so polite
So polite
D
So polite


I think that's it. Tell me anything that's wrong with it, and I'll try to change it.
song is so badass.
Tunning: Standard (E A D G B e)
Little Lover's So Polite
Silversun Pickups
Carnavas 2006

As seen played live

DADGBe Tuning

D: 000xxx E: 222xxx F#: 444xxx

G: 555xxx A: 777xxx B: 999xxx

Riff 1 (played twice in intro):

1 + 2 + 3 + 4 + 1 + 2 + 3 + 4 + 1 + 2 + 3 + 4 + 1 + 2 + 3 + 4 +
e|-----------------------------------------------------------------|
B|-5-5-3-3-2-2-0-0-2-2-0-0-2-2-3-3-5-5-3-3-2-2-0-0-2-2-0-0-2h3-2-3-|
G|-0-0-0-0-0-0-0-0-0-0-0-0-0-0-0-0-2-2-2-2-2-2-2-2-2-2-2-2-2-2-2-2-|
D|-----------------------------------------------------------------|
A|-----------------------------------------------------------------|
D|-----------------------------------------------------------------|

G
So much for the light show
D
pissing on while pissing off
G
sucking in a smokescreen
D
selling of a loose knit dream

Riff 1 x2

G
folding up the skyline
D
agreeing on a steep decline
G
cant control this airplane
D
being caught is just the same
G
headed for a lowlife
D
little lover’s so polite
G
waking up the core needs
G
with smelling salts and faulty means

Riff 1
did the bones collide
Riff 1
who let the bones collide
Riff 1 Riff 1
why did the bones collide

nikki:
B A D E
It’s always the same way for me
B A D E F#
Ending in the same way

G
so much for the showdown
D
keeping up while keeping off
G
choking on the cold feet
D
rolling up the plastic sleeves
G
can't control the slow ride
D
little lover's so polite
G D
turning off the low light

Riff 1
tell me did the bones collide
the bones collide
Riff 1
the bones collide
Riff 1
little lover’s so polite
so polite
Riff 1
so polite
turning off the low light

nikki:
B A D E
It’s always the same way for me
B A D E
blue turns soft with time
B A D E
broke remains, an everyday disguise
B A E
ending in the same way. . .the same way

[solo] 3:22

1 + 2 + 3 + 4 + 1 + 2 + 3 + 4 + 1 + 2 + 3 + 4 + 1 + 2 + 3 + 4 +
e|-----------------------------------------------------------------|
B|-----------------------------------------------------------------|
G|-----------------------------------------------------------------|
D|-------------------------9~------7------------47-4----47-4-2-4-2-|
A|-2/5-5-----0/5-7~----0/7-----------------------------------------|
D|-----------------------------------------------------------------|

e|-----------------------------------------------------------------|
B|-----------------------------------------------------------------|
G|-----------------------------------------------------------------|
D|-------------------------9-------7------------47-4-----7/9-7-9---|
A|-2/5-5-----0/5-7~----0/7-----------------------------------------|
D|-----------------------------------------------------------------|

e|-----------------------------------------------------------------|
B|-----------------------------------------------------------------|
G|-----------------------------------------------------------------|
D|-97------------7-97--------7---------------------7-------7-------|
A|---975---575-------975-7/9---9-9b9---------------------9---5-----|
D|-------------9---------------------------------------------------|

e|-----------------------------------------------------------------|
B|-----------------------------------------------------------------|
G|-----------------------------------------------------------------|
D|-97------------7-97--------7---------------------7-------7-9-9-7-|
A|---975---575-------975-7/9---9-9b9---------------------9---------|
D|-------------9---------------------------------------------------|

e|-----------------------------------------------------------------|
B|-----------------------------------------------------------------|
G|-9-9-7-7-6-6-4-4-6-6-4-4-6-6-7-7-9-9-7-7-6-6-4-4-6-6-4-4-6-6b----|
D|-----------------------------------------------------------------|
A|-----------------------------------------------------------------|
D|-----------------------------------------------------------------|

e|-----------------------------------------------------------------|
B|-----------------------------------------------------------------|
G|-9-9-7-7-6-6-4-4-6-6-4-4-6-6-7-7-9-9-7-7-6-6-4-4-6-6-4-4-6-6b----|
D|-----------------------------------------------------------------|
A|-----------------------------------------------------------------|
D|-----------------------------------------------------------------|

[fade after solo]

G
tell me did the bones collide
the bones collide
D
the bones collide
G
little lover’s so polite
so polite
D
so polite

That's it pretty much for this song. There are a few slides between notes in the solo
i didn't tab out.
Song info
Little Lovers So Polite
Silversun Pickups
2001
  • Rock
  • Indie Rock
  • Shoegaze
Similar songs
Beetlebum - Blur
Perfect 10 - The Beautiful South
Still Ill - The Smiths

Hi! Hope you enjoy backing track experience.
If you want to help us in the development of the project, feel free to donate!