Hedonism - Skunk Anansie
00:00 / 00:00
Tabs and lyrics
Tunning: Nashville (E A D G B E)
[Intro/Verses]

E|--------8--8--8--8----8--8--8--|---------------------------------|
B|--------9--8--9--11---9--8--9--|---------8-----------------------|
G|------------H------------------|---------8------------8----8-----|
D|-------------------------------|---H---------H-------------------|
A|---8-8-------------------------|--8--10-----8--10--10---10---10--|
E|-------------------------------|---------------------------------|


E|--------8--8--8--8----8--8--8--|-------------------------------|
B|--------9--8--9--11---9--8--9--|---------8-------------H--P----|
G|------------H------------------|---------8---------H--8-10-8---|
D|-------------------------------|---H---------H---8-10--------8-|
A|---8-8-------------------------|--8--10-----8-10---------------|
E|-------------------------------|-------------------------------|


E|-----8----8---8---8---8-|---8----8----8----8----8----8----8----8-|
B|-----9--9---9---9---9---|11---11---11---11---11---11---11---11---|
G|------------------------|----------------------------------------|
D|------------------------|----------------------------------------|
A|-8-8--------------------|----------------------------------------|
E|------------------------|----------------------------------------|


[Chorus]

Dist the guitar and rock!
E|---------------|-----------------|-------------|-----------------|
B|---------------|-----------------|-------------|-----------------|
G|--8--8--8-8--3-|--3--3-3-3-3-3-3-|-------------|-----------------|
D|--8--8--8-8--3-|--3--3-3-3-3-3-3-|--3-3-3-3--6-|--6--6-6-6-6-6-6-|
A|--6--6--6-6--1-|--1--1-1-1-1-1-1-|--3-3-3-3--6-|--6--6-6-6-6-6-6-|
E|---------------|-----------------|--1-1-1-1--4-|--4--4-4-4-4-4-4-|


E|---------------|-----------------|-------------|
B|---------------|-----------------|-------------|
G|--8--8--8-8--3-|--3--3-3-3-3-3-3-|-------------|
D|--8--8--8-8--3-|--3--3-3-3-3-3-3-|--3-3-3-3--6-|
A|--6--6--6-6--1-|--1--1-1-1-1-1-1-|--3-3-3-3--6-|
E|---------------|-----------------|--1-1-1-1--4-|


[Solo]

If you got a wah-wah pedal it´s time to use it
E|--------------------------------|-13-10-------------------------------|
B|--------------------------------|---P----13-10---11-10----------------|
G|-------10----H---10---H---10----|----------P------P----12-10---H---10-|
D|-------12--10-12----10-12----10-|------------------------P---10-12----|
A|-10-10--------------------------|-------------------------------------|
E|--------------------------------|-------------------------------------|


E|-----------------------------------|---------------------------------------|
B|-----------------------------------|---P------------P------------P---------|
G|-------10----H---10-------10---P---|-12-10----10--12-10----10--12-10----10-|
D|-------12--10-12----10-12----12-10-|-------12-----------12-----------12----|
A|-10-10-----------------------------|---------------------------------------|
E|-----------------------------------|---------------------------------------|


E|--------------------------------|-13-10-------------------------------|
B|--------------------------------|---P----13-10---11-10----------------|
G|-------10----H---10---H---10----|----------P------P----12-10---H---10-|
D|-------12--10-12----10-12----10-|------------------------P---10-12----|
A|-10-10--------------------------|-------------------------------------|
E|--------------------------------|-------------------------------------|


E|---------------------------------|----------------------------|
B|---------------------------------|-13-13-13-13-13-13-13-13-13-|
G|-------10--------10--------10----|----------------------------|
D|-------12--10-12-----10-12----10-|----------------------------|
A|-10-10---------------------------|----------------------------|
E|---------------------------------|----------------------------|


[Last Chorus]

Play this last in F instead
E|-------------|----------------|------------|----------------|
B|-------------|----------------|------------|----------------|
G|-----------5-|--5-5-5-5-5-5-5-|----------3-|--3-3-3-3-3-3-3-|
D|--3-3-3-3--5-|--5-5-5-5-5-5-5-|-5-5-5-5--3-|--3-3-3-3-3-3-3-|
A|--3-3-3-3--3-|--3-3-3-3-3-3-3-|-5-5-5-5--1-|--1-1-1-1-1-1-1-|
E|--1-1-1-1----|----------------|-3-3-3-3----|----------------|(x3)

E|-------------|----------------|------------|
B|-------------|----------------|------------|
G|-----------5-|--5-5-5-5-5-5-5-|----------3-|
D|--3-3-3-3--5-|--5-5-5-5-5-5-5-|-5-5-5-5--3-|
A|--3-3-3-3--3-|--3-3-3-3-3-3-3-|-5-5-5-5--1-|
E|--1-1-1-1----|----------------|-3-3-3-3----|


[Outro]

This is the intro moved up to G instead
E|--------10-10-10-10---10-10-10-|----------------------|
B|--------11-10-11-13---11-10-10-|-------------------10-|
G|----------H-------------P------|-----10--------10-----|
D|-------------------------------|---10-----H--10-------|
A|--10-10------------------------|-12-----10-12---------|
E|-------------------------------|----------------------|


E|--------10-10-10-10---10-10-10-|---------------------------------|
B|--------11-10-11-13---11-10-10-|------------------------------10-|
G|----------H-------------P------|--------10----10----------10-----|
D|-------------------------------|-----------------------10--------|
A|--10-10------------------------|--10-12----12----10-12-----------|
E|-------------------------------|---------------------------------|(x2)

And end it like this
E|--------10-10-10-10---10-10-10-|-----------|
B|--------11-10-11-13---11-10-10-|-----------|
G|----------H-------------P------|------10---|
D|-------------------------------|---10------|
A|--10-10------------------------|12---------|
E|-------------------------------|-----------|


And now The lyrics:


[Verse 1]

I hope you're feeling happy now
I see you feel no pain at all it seems
I wonder what you're doin' now
I wonder if you think of me at all
Do you still play the same moves now
Or are those special moods
For someone else
I hope you're feeling happy now


[Chorus]

Just because you feel good
Doesn't make you right
Just because you feel good
Still want you here tonight


[Verse 2]

Does laughter still discover you
I see through all the smiles
That look so right
Do you still have the same friends now
To smoke away your problems and your life
Oh how do you remeber
Me the one that made
you laugh until you cried
I hope yo're feeling happy now


[Chorus]

Just because you feel good
Doesn't make you right
Just because you feel good
Still want you here tonight

I wonder what you're donig now
I hope you're feeling happy now
I hope you're feeling happy now



************************************

| H hammer on
| P pull-off

************************************
Song info
Hedonism
Skunk Anansie
2001
  • Rock
  • Alternative Rock
Alternative tracks
Similar songs
Far Behind - Candlebox
Interstate Love Song - Stone Temple Pilots
One Of Us - Joan Osborne
Outshined - Soundgarden

Hi! Hope you enjoy backing track experience.
If you want to help us in the development of the project, feel free to donate!