I Can Dream - Skunk Anansie
00:00 / 00:00
Tabs and lyrics
Tunning: Nashville (E A D G B E)
Skunk Anansie - I Can Dream

Intro:
E||------------|
B||------------|
G||------------|
D||------------|
A||------------|
E||-12\---2----| hold for feedback

Verse
E||-----------------|-----------------|
B||-----------------|-----------------|
G||-----------------|-----------------|
D||-----------------|-----------------|
A||-----4-----4-----|-4-----4-0-2-0---|
E||-2-2---2-3---3-4-|---4-5---------4-|

Pre-chorus
E||-----------------|-----------------|
B||-----------------|-----------------|
G||-----------------|-----------------|
D||-4-4-4-5---5-5-7-|---7-7-9---9-9-9-|
A||-4-4-4-5---5-5-7-|---7-7-9---9-9-9-|
E||-2-2-2-3---3-3-5-|---5-5-7---7-7-7-|

Chorus
E||-2---2-------2---|-8---8-------8---|-0---0-------0---|-0---0-----------|
B||-2---2-------2-x-|-8---8-------8-x-|-3---3-------3-x-|-0---0---------x-|
G||-2---2-------2-x-|-7---7-------7-x-|-2---2-------2-x-|-0---0---------x-|
D||-4---4-------4-x-|-5---5-------5-x-|-0---0-------0-x-|-2---2-------2-x-|
A||-4---4-------4-x-|-5---5-------5-x-|-----------------|-2---2-------2-x-|
E||-2---2-------2---|-----------------|-----------------|-0---0-------0---|

Bridge
E||-----------------|-----------------|
B||-----------------|-----------------|
G||-----------------|-----------------|
D||-4-4-4-5---5-5-6-|---6-6-7---7-7-7-|
A||-4-4-4-5---5-5-6-|---6-6-7---7-7-7-|
E||-2-2-2-3---3-3-4-|---4-4-5---5-5-5-|

http://www.sparkystabs.co.uk
Song info
I Can Dream
Skunk Anansie
2001
  • Rock
  • Alternative Rock
  • Punk
Similar songs
100 Years - Five for Fighting
When Im Gone - 3 Doors Down
Hysteria - Muse
Passive - A Perfect Circle
Jet Boy - New York Dolls

Hi! Hope you enjoy backing track experience.
If you want to help us in the development of the project, feel free to donate!