Raining Blood - Slayer
00:00 / 00:00
Tabs and lyrics
Tunning: Standard (E A D G B e)
Tune down 1 half step:
Eb Ab Db Gb Bb Eb

[Intro]
e|-----------------------------------------------------------------|
B|-----------------------------------------------------------------|
G|-----------------------------------------------------------------|
D|-----------------------------------------------------------------|
A|-----------------------------------------------------------------|
E|-0---------------------------------------------------------------|

[Riff A]
e|-----------------------------------------------------------------|
B|-----------------------------------------------------------------|
G|-----------------------------------------------------------------|
D|---------8-9-8-----8-7-----7-6-------------8-9-8-----8-7-----7-6-|
A|-------7---------9-------8---------------7---------9-------8-----|
E|-0-0-0-----------------------------0-0-0-------------------------|

(Both Guitars)
e|-----------------------------------------------------------------|
B|-----------------------------------------------------------------|
G|---------8-9-8-----8-7-----7-6-------------8-9-8-----8-7-----7-6-|
D|-------7-8-9-8---9-8-7-----7-6-----------7-8-9-8---9-8-7---8-7-6-|
A|-------7---------9-------8---------------7---------9-------8-----|
E|-0-0-0-----------------------------0-0-0-------------------------|

e|-----------------------------------------------------------------|
B|-----------------------------------------------------------------|
G|-----------------------------------------------------------------|
D|-----------------------------------------------------------------|
A|-----------------------------------------------------------------|
E|-0-0--0--0-0--0--0-0--0--0-0--0--0-0--0--0-0--0--0-0--0--0-0--0--|

e|-----------------------------------------------------------------|
B|-----------------------------------------------------------------|
G|-----------------------------------------------------------------|
D|---------------------------------------------3--2----------------|
A|------------------------------------------4--------3--2----------|
E|-0-0--0--0-0--0--0-0--0--0-0--0--0--2--4-------------------------|

e|-----------------------------------------------------------------|
B|-----------------------------------------------------------------|
G|-----------------------------------------------------------------|(x2)
D|-----------------------------------------------------------------|
A|-----------------------------------------------------------------|
E|-5-3-2-0-6-4-3-0-5-3-2-0-6-4-3-0-5-3-2-0-6-4-3-0-5-3-2-0-6-4-3-0-|

e|-----------------------------------------------------------------|
B|-----------------------------------------------------------------|
G|-----------------------------------------------------------------|(x3)
D|----------------------------------------------------------3------|
A|----------------------------------------------------------1------|
E|-5-3-2-0-6-4-3-0-5-3-2-0-6-4-3-0-5-3-2-0-6-4-3-0-5-3-2-0---------|

e|-----------------------------------------------------------------|
B|-----------------------------------------------------------------|
G|-----------------------------------------------------------------|
D|-----------------------------------------------------------------|
A|--------------------------------------------------5--8-7---------|
E|-5-3-2-0-6-4-3-0-5-3-2-0-6-4-3-0-5-3-2-0-6-4-3-0--3--6-5---------|

[Verse]
e|-----------------------------------------------------------------|
B|-----------------------------------------------------------------|
G|-----------------------------------------------------------------|
D|-------------------9--8------------------------------------------|
A|---------------10--7--6---------------------9--9--12--12---------|
E|-0---0-0--0--0--8------------0---0-0--0--0--7--7--10--10---------|

[Interlude]
e|------------------------------------------------------------------------------|
B|------------------------------------------------------------------------------|
G|------------------------------------------------------------------------------|
D|----------------------------------------8-7--8-8-8-8-8-8-8-8-8-8-8-8-8-8------|
A|--------------7h10p8p7-8----------7--10------6-6-6-6-6-6-6-6-6-6-6-6-6-6--7-7-|
E|-0--0--0--0---------------0--0--0-----------------------------------------5-5-|

[Bridge]
e|-----------------------------------------------------------------|
B|-----------------------------------------------------------------|
G|-----------------------------------------------------------------|
D|-----------------------------------------------------------------|
A|-2-2----2-2----2-2----2-2----2-2----2-2----2-2----2-2----2-2-----|
E|-0-0----0-0----0-0----0-0----0-0----0-0----0-0----0-0----0-0-----|

[Riff over bridge]
e|-----------------------------------------------------------------|
B|-----------------------------------------------------------------|
G|-----------------------------------------------------------------|
D|--------9---------8---------7------------------------------------|
A|---7-10------7-10------7-10------7-10-9--------------------------|
E|-7---------7---------7---------7---------------------------------|

[Chorus]
e|-----------------------------------------------------------------|
B|-----------------------------------------------------------------|
G|-----------------------------------------------------------------|
D|-------4-------3-------2---------------4-------3-------2---------|
A|-----5-2-----4-1-----3-0-----5-4-----5-2-----4-1-----3-0-----5-4-|
E|-0-0-3---0-0-2---0-0-1---0-0-3-2-0-0-3---0-0-2---0-0-1---0-0-3-2-|
...blood!...

e|-----------------------------------------------------------------|
B|-----------------------------------------------------------------|
G|-----------------------------------------------------------------|(x2)
D|-----------------------------------------------------------------|
A|-----------------------------------------------------------------|
E|-0-0-0-0-0-0-0-0-0-0-0-0-0-0-0-0-0-0-0-0-0-0-0-0-0-0-0-0-0-0-0-0-|

[Outro]
e|-----------------------------------------------------------------|
B|-----------------------------------------------------------------|
G|-----------------------------------------------------------------|(x2)
D|-----------------------------------------------------------------|
A|-----------------------------------------------------------------|
E|-0-0-0-0-1-1-7-7-6-6-6-3-3-3-3-3-0-0-0-0-1-1-7-7-6-6-6-3-3-3-3-3-|

e|-----------------------------------------------------------------|
B|-----------------------------------------------------------------|
G|-----------------------------------------------------------------|
D|-----------------------------------------------------------------|
A|-----------------------------------------------------------------|
E|-4-4-4-4-4-4-8-8-7-7-7-7-7-7-8-8-4-4-4-4-4-4-8-8-7-7-7-7-7-7-8-8-|

e|-----------------------------------------------------------------|
B|-----------------------------------------------------------------|
G|-----------------------------------------------------------------|
D|-----------------------------------------------------------------|
A|-----------------------------------------------------------------|
E|-0-0-0-0-1-1-7-7-6-6-6-3-3-3-3-3-0-0-0-0-1-1-7-7-6-6-6-3-3-3-3-3-|

e|-----------------------------------------------------------------|
B|-----------------------------------------------------------------|
G|-----------------------------------------------------------------|
D|-----------------------------------------------------------------|
A|-----------------------------------------------------------------|
E|-0-0-0-0-0-0-0-0-0-0-0-0-0-0-0-0-0-0-0-0-0-0-0-0-0-0-0-0-0-0-0-0-|


************************************

| h Hammer-on
| p Pull-off

************************************
Tunning: Standard (E A D G B e)
Tune Down 1/2 step +=Artificial Harmonic
6=Eb 3=Gb P.M.=Palm Mute
5=Ab 2=Bb %=Repeat Previous
4=Db 1=Eb h=Hammer-On
p= Pull-Off


Intro Drums w/Thunder and Rain effects
||---------------------------------------------------------||
||---------------------------------------------------------||
||---------------------------------------------------------||
||---------------------------------------------------------||
||---------------------------------------------------------||
||---------------------------------------------------------||

Fast Rock
Riff A (guitars 1&2)-------------------
P.M====| Play 2 times
||---------------------------------------------------------||
||---------------------------------------------------------||
||---------------------------------------------------------||
||----------8-9-8------8-7-------7-6-----------------------||
||-------7----------9---------8----------------------------||
||0-0-0----------------------------------------------------||

W/Riff A (2 times)
GTR II
P.M.===| + +
||---------------------------------------------------------||
||---------------------------------------------------------||
||----------8-9-8------8-7-----7-6-------------------------||
||-------7----------9--------8-----------------------------||
||---------------------------------------------------------||
||0-0-0----------------------------------------------------||

Both Guitars
P.M.=======================================================
||---------------------------------------------------------||
||---------------------------------------------------------||
||O--------------------------------------------------------||
||O--------------------------------------------------------||
||---------------------------------------------------------||
||-000-000-000-000-000-000-000-000-000-000-000-000---------||

P.M.=======| (play 4 times)
||---------------------------------------------------------||
||---------------------------------------------------------||
||--------------------------------------------------------O||
||----------------3---2-----------------------------------O||
||------------4-----------3---2----------------------------||
||-0--2---4------------------------------------------------||


(1)
P.M.==============================
||--------------------------------|------------------------||
||--------------------------------|------------------------||
||--------------------------------|------------%-----------||
||--------------------------------|------------------------||
||--------------------------------|------------------------||
||5-3-2-0-6-4-3-0-5-3-2-0-6-4-3-0-|------------------------||

Double Time Feel (cont)..
PM=========================================================
||---------------------------------------------------------||
||---------------------------------------------------------||
||---------------------------------------------------------||
||---------------------------------------------------------||
||---------------------------------------------------------||
||5-3-2-0-6-4-3-0-5-3-2-0-6-4-3-0-5-3-2-0-6-4-3-0-5-3-2-0-6||

..
P.M ===========| P.M.================================(cont)...
||---------------------------------------------------------||
||---------------------------------------------------------||
||---------------------------------------------------------||
||---------------3-----------------------------------------||
||---------------1-----------------------------------------||
||4-3-0-5-3-2-0----0-3-5-3-2-0-6-4-3-0-5-3-2-0-6-4-3-0-----||

P.M.=============| (Play 2 times)
||---------------------------------------------------------||
||---------------------------------------------------------||
||---------------------------------------------------------||
||---------------------------------------------------------||
||--------------------5------------8-----------------------||
||5-3-2-0-6-4-3-0-----3------------6-----------------------||


(Trapped in purgatory.........)
P.M.===================| P.M.=====| (Play 8 times)
||----------------------------------------------------------||
||----------------------------------------------------------||
||------------------------------9---8--------------7--------||
||-----------------------7------9---8----------7---7--------||
||-----------------------7------7---6----------7---5--------||
||000000000000000000000--5------------00000000-5------------||

-(2)-

(play 4 times, 3rd time with lyrics (pierced from below)
P.M.====| +P.M.==|
||----------------------------------------------------------||
||----------------------------------------------------------||
||--------------------------------------888888888888--------||
||----------------------------------8-7-888888888888--7--7--||
||--------7h10 p 8-7-8-------7---10-----666666666666--7--7--||
||0-0-0-0--------------0-0-0--------------------------5--5--||


With Riff A (4 times, 3rd with Lyrics (awaiting........)
||----------------------------------------------------------||
||----------------------------------------------------------||
||--------10-11-10------10-9-----9-8------------------------||
||------9------------11--------10---------------------------||
||----------------------------------------------------------||
||0-0-0-----------------------------------------------------||

Rhythm Fig 1 (Play 2 times, 2nd with drums)
||--------------------------------------||
||--------------------------------------||
||--------------------------------------||
||--------------------------------------||
||2-2--2-2--2-2--2-2--2-2--2-2--2-2--2-2||
||0-0--0-0--0-0--0-0--0-0--0-0--0-0--0-0|| With Pick Slide (2nd)
With Pick Slide (2nd)

With Rhy Fig 1 (12 Times)
PM PM PM PM
||----------------------------------------------------------||
||----------------------------------------------------------||
||----------------------------------------------------------||
||-----------9----------8------------7----------------------||
||----7--10-------7--10--------7--10--------7-10-9----------||
||-0------------0-----------0------------0------------------||

(3)
With Lyrics (Raining Blood...) (Play 4 times)
P.M.=| ====| ====| ====|
||--------------------------------------------||
||--------------------------------------------||
||--------------------------------------------||
||--------------------------------------------||
||------5---9-------5---8-------5--7-------5-4||
||-0--0-3---7--0--0-3---6--0--0-3--5--0--0-3-2||

-(3)-

||----------------------------------------------------------||
||----------------------------------------------------------||
||----------------------------------------------------------||
||----------------------------------------------------------||
||----------------------------------------------------------||
||0000000000000000000000000000000000000000000000000000000000||


(4)
With Wild soloing........ =)
||----------------------------------------------------------||
||----------------------------------------------------------||
||----------------------------------------------------------||
||----------------------------------------------------------||
||----------------------------------------------------------||
||0000000077777777776666666666333333444444444477777777778888||
Tunning: Standard (E A D G B e)
RAINING BLOOD
As recorded by Slayer
(From the 1985 Album REIGN IN BLOOD)

Words by Jeff Hanneman And Kerry King

Music by Jeff Hanneman
Transcribed by Ethereal Sin

I didn't actually transcribe this. My friend had tabs for this that came from some
magazine and I simply copied it into Powertab.

E5
0 2 x x x x

Gtr I (Eb Ab Db Gb Bb Eb) - 'Kerry'
Gtr II (Eb Ab Db Gb Bb Eb) - 'Jeff'

Intro
Fast Rock Q=178
4/4
Gtrs I, II
PM--|
Wx2 E E E E E E Q E E Q E E Q
|------------||-----------------|-----------------||
|------------||o----------------|----------------o||
|------------||-----------------|-----------------||
|------------||----------8-9-8--|---8-7----7-6----||
|------------||o-------7--------|-9------8-------o||
|------------||--0-0-0----------|-----------------||
Feedback

4/4
Gtr II
PM--| PM--|
E E E E E E Q E E Q E E Q E E E E E E Q E E Q E E Q
|----------------|---------------|------------------|-----------------||
|----------------|---------------|------------------|-----------------||
|----------------|---------------|------------------|-----------------||
|---------8-9-8--|---8-7----7-6--|---------8-9--8---|----8--7----7-6--||
|-------7--------|-9------8------|-------7----------|-9--------8------||
|-0-0-0----------|---------------|-0-0-0------------|-----------------||
|
| Gtr I
| PM--| PM--|
| E E E E E E Q E E Q E E Q E E E E E E Q E E Q E E Q
|----------------|---------------|------------------|-----------------||
|----------------|---------------|------------------|-----------------||
|---------8-9-8--|---8-7----7-6--|---------8-9-[8]--|---[8]-7----7-6--||
|-------7--------|-9------8------|-------7----------|-9--------8------||
|----------------|---------------|------------------|-----------------||
|-0-0-0----------|---------------|-0-0-0------------|-----------------||


Gtrs I, II
PM-------------------------------------------------
S S E S S E S S E S S E S S E S S E S S E S S E
||--------------------------|-------------------------|
||o-------------------------|-------------------------|
||--------------------------|-------------------------|
||--------------------------|-------------------------|
||o-------------------------|-------------------------|
||--0-0-0-0-0-0-0-0-0-0-0-0-|-0-0-0-0-0-0-0-0-0-0-0-0-|


-------------------------------|
S S E S S E S S E S S E E E E E E E E E 4x
|-------------------------|--------------------||
|-------------------------|-------------------o||
|-------------------------|--------------------||
|-------------------------|---------3-2--------||
|-------------------------|-------4-----3-2---o||
|-0-0-0-0-0-0-0-0-0-0-0-0-|-0-2-4--------------||


Faster Q=214
PM--------------------------------------------------------------------|
S S S S S S S S S S S S S S S S S S S S S S S S S S S S S S S S
||-----------------------------------||-||----------------------------------|
||o---------------------------------o||-||o---------------------------------|
||-----------------------------------||-||----------------------------------|
||-----------------------------------||-||----------------------------------|
||o---------------------------------o||-||o---------------------------------|
||--5-3-2-0-6-4-3-0-5-3-2-0-6-4-3-0--||-||--5-3-2-0-6-4-3-0-5-3-2-0-6-4-3-0-|


PM--------------------| PM----------------------------------|
S S S S S S S S S S S S E S S S S S S S S S S S S S S S S S S
|-------------------------------|----------------------------------|
|-------------------------------|----------------------------------|
|-------------------------------|----------------------------------|
|-------------------------3-----|----------------------------------|
|-------------------------1-----|----------------------------------|
|-5-3-2-0-6-4-3-0-5-3-2-0---0-3-|-5-3-2-0-6-4-3-0-5-3-2-0-6-4-3-0--|


1.,2. 3.
PM------------| PM--------------------|
S S S S S S S S Q E S S S S S S S S S S Q Q
|---------------------------||-----------------------||
|--------------------------o||-----------------------||
|---------------------------||-----------------------||
|---------------------------||-----------------------||
|-----------------5--8-----o||-----------------5--8--||
|-5-3-2-0-6-4-3-0-3--6-0-3--||-5-3-2-0-6-4-3-0-3--6--||


1st Verse
PM--------| PM--------|
E S S S S E E E Q E S S S S E Q Q
||----------------------|--------------------|
||o---------------------|--------------------|
||----------------------|--------------------|
||-----------------9-8--|--------------------|
||o-------------10-7-6--|-------------9--12--|
||--0-0-0-0-0-0--8------|-0-0-0-0-0-0-7--10--|


PM--------| PM--------|
E S S S S E E E Q E S S S S E Q Q 4x
|---------------------|---------------------||
|---------------------|--------------------o||
|---------------------|---------------------||
|----------------9-8--|---------------------||
|-------------10-7-6--|-------------9--12--o||
|-0-0-0-0-0-0--8------|-0-0-0-0-0-0-7--10---||


Slower Q=188
PM----| PM--|
E E E E S S S S Q E E E E E E Q E E E E E E E E E E E E Q Q
||----------------------|-----------------|-----------------|-----------------||
||o---------------------|-----------------|-----------------|----------------o||
||----------------------|-----------------|-8-8-8-8-8-8-8-8-|-8-8-8-8---------||
||----------------------|------------8-7--|-8-8-8-8-8-8-8-8-|-8-8-8-8-7--7----||
||o---------7h10p8p7-8--|-------7-10------|-6-6-6-6-6-6-6-6-|-6-6-6-6-7--7---o||
||--0-0-0-0-------------|-0-0-0-----------|-----------------|---------5--5----||


Bridge
PM----| PM--|
E E E E S S S S Q E E E E E E Q E E E E E E E E E E E E Q Q
||----------------------|-----------------|-----------------|-----------------||
||o---------------------|-----------------|-----------------|----------------o||
||----------------------|-----------------|-8-8-8-8-8-8-8-8-|-8-8-8-8---------||
||----------------------|------------8-7--|-8-8-8-8-8-8-8-8-|-8-8-8-8-7--7----||
||o---------7h10p8p7-8--|-------7-10------|-6-6-6-6-6-6-6-6-|-6-6-6-6-7--7---o||
||--0-0-0-0-------------|-0-0-0-----------|-----------------|---------5--5----||


Slightly Slower Q=185
PM--|
E E E E E E Q E E Q E E Q
||-----------------|----------------||-|
||o----------------|---------------o||-|
||-----------------|----------------||-|
||----------8-9-8--|---8-7----7-6---||-|
||o-------7--------|-9------8------o||-|
||--0-0-0----------|----------------||-|
|
| W W
||-----------------|----------------||-|
||o----------------|---------------o||-|
||-----------------|----------------||-|
||-----------------|----------------||-|
||o----------------|---------------o||-|
||-----------------|----------------||-|


Gtr II
PM--|
E E E E E E Q E E Q E E Q
||--------------------|-------------------||
||o-------------------|------------------o||
||--------------------|-------------------||
||-----------8--9--8--|-----8-7-----7-6---||
||o-------7-----------|--9--------8------o||
||--0-0-0-------------|-------------------||
|
| Gtr I
| PM--|
| E E E E E E Q E E Q E E Q
||--------------------|-------------------||
||o-------------------|------------------o||
||----------10-11-10--|----10-9-----9-8---||
||--------9-----------|-11-------10-------||
||o-------------------|------------------o||
||--0-0-0-------------|-------------------||


Slightly Slower Q=180
Gtrs I, II
E E Q E E Q E E Q E E Q E E Q E E Q E E Q E E Q
||----------------|---------------|---------------|-----------------||
||o---------------|---------------|---------------|----------------o||
||----------------|---------------|---------------|-----------------||
||----------------|---------------|---------------|-----------------||
||o-2-2----2-2----|-2-2----2-2----|-2-2----2-2----|-2-2----2-2-----o||
||--0-0----0-0----|-0-0----0-0----|-0-0----0-0----|-0-0----0-0------||


E5
Gtr II
E E Q E E Q E E Q E E Q E E Q E E Q
| | | | | | | | | | | |
/ / / / / / / / / / / /

Gtr I
PM PM PM PM PM PM
E E E E E E E E E E E E E E E E E E E E E E E E
||--------------------|-------------------|-------------------|
||o-------------------|-------------------|-------------------|
||--------------------|-------------------|-------------------|
||---------9--------8-|--------7----------|--------9--------8-|
||o---7-10-----7-10---|---7-10-----7-10-9-|---7-10-----7-10---|
||--0--------0--------|-0--------0--------|-0--------0--------|


E E Q E E Q E E Q E E Q E E Q E E Q
| | | | | | | | | | | |
/ / / / / / / / / / / /

PM PM PM PM PM PM
E E E E E E E E E E E E E E E E E E E E E E E E
|-------------------|-------------------|--------------------||
|-------------------|-------------------|-------------------o||
|-------------------|-------------------|--------------------||
|--------7----------|--------9--------8-|--------7-----------||
|---7-10-----7-10-9-|---7-10-----7-10---|---7-10-----7-10-9-o||
|-0--------0--------|-0--------0--------|-0--------0---------||


Chorus
Gtrs I, II
PM| PM| PM| PM| PM| PM| PM| PM|
E E E E E E E E E E E E E E E E E E E E E E E E E E E E E E E E
||------------------|-----------------|-----------------|-------------------||
||o-----------------|-----------------|-----------------|------------------o||
||------------------|-----------------|-----------------|-------------------||
||------------------|-----------------|-----------------|-------------------||
||o-----5-9-----5-8-|-----5-7-----5s4-|-----5-9-----5-8-|-----5-7-----5s4--o||
||--0-0-3-7-0-0-3-6-|-0-0-3-5-0-0-3s2-|-0-0-3-7-0-0-3-6-|-0-0-3-5-0-0-3s2---||


PM-----------------------------------------------------------------
S S S S S S S S S S S S S S S S S S S S S S S S S S S S S S S S
|---------------------------------|---------------------------------|
|---------------------------------|---------------------------------|
|---------------------------------|---------------------------------|
|---------------------------------|---------------------------------|
|---------------------------------|---------------------------------|
|-0-0-0-0-0-0-0-0-0-0-0-0-0-0-0-0-|-0-0-0-0-0-0-0-0-0-0-0-0-0-0-0-0-|


2/4 4/4
-------------------------------------------------|
S S S S S S S S S S S S S S S S S S S S S S S S
|-----------------|----------------------------------||
|-----------------|----------------------------------||
|-----------------|----------------------------------||
|-----------------|----------------------------------||
|-----------------|----------------------------------||
|-0-0-0-0-0-0-0-0-|-0-0-0-0-0-0-0-0-0-0-0-0-0-0-0-0--||


Outro
Faster Q=247
PM-----------------------------------
E E E E E E E E E E E E E E E E 4x
||------------------|------------------||
||o-----------------|-----------------o||
||------------------|------------------||
||------------------|------------------||
||o-----------------|-----------------o||
||--0-0-0-0-0-0-7-7-|-6-6-6-6-3-3-3-3--||


-------------------------------------|
E E E E E E E E E E E E E E E E
|-||------------------|------------------||
|-||o-----------------|-----------------o||
|-||------------------|------------------||
|-||------------------|------------------||
|-||o-----------------|-----------------o||
|-||--4-4-4-4-4-4-8-8-|-7-7-7-7-7-7-8-8--||


PM--------------------------------------------------------------------|
E E E E E E E E E E E E E E E E 9x E E E E E E E E E E E E E E E E
||------------------|------------------||-----------------|------------------|
||o-----------------|-----------------o||-----------------|------------------|
||------------------|------------------||-----------------|------------------|
||------------------|------------------||-----------------|------------------|
||o-----------------|-----------------o||-----------------|------------------|
||--0-0-0-0-0-0-7-7-|-6-6-6-6-3-3-3-3--||-0-0-0-0-0-0-0-0-|-0-0-0-0-0-0-0-0--|


PM--------------------------|
E E E E E E E E E E E E E E Q W
|-----------------|----------------|------*|
|-----------------|----------------|------*|
|-----------------|----------------|------*|
|-----------------|----------------|------*|
|-----------------|----------------|------*|
|-0-0-0-0-0-0-0-0-|-0-0-0-0-0------|------*|


Duration Legend
---------------
W - whole; H - half; Q - quarter; E - 8th; S - 16th; T - 32nd; X - 64th; a - acciaccatura
+ - note tied to previous; . - note dotted; .. - note double dotted
Uncapitalized letters represent notes that are staccato (1/2 duration)
Irregular groupings are notated above the duration line
Duration letters will always appear directly above the note/fret number it represents the
duration for. Duration letters with no fret number below them represent rests. Multi-
bar rests are notated in the form Wxn, where n is the number of bars to rest for. Low
melody durations appear below the staff

Tablature Legend
----------------
h - hammer-on
p - pull-off
b - bend
pb - pre-bend
r - bend release (if no number after the r, then release immediately)
/\ - slide into or out of (from/to "nowhere")
s - legato slide
S - shift slide
- natural harmonic
[n] - artificial harmonic
n(n) - tapped harmonic
~ - vibrato
tr - trill
T - tap
TP - trem. picking
PM - palm muting
\n/ - tremolo bar dip; n = amount to dip
\n - tremolo bar down
n/ - tremolo bar up
/n\ - tremolo bar inverted dip
= - hold bend; also acts as connecting device for hammers/pulls
- volume swell (louder/softer)
x - on rhythm slash represents muted slash
o - on rhythm slash represents single note slash

Misc Legend
-----------
| - bar
|| - double bar
||o - repeat start
o|| - repeat end
*| - double bar (ending)
: - bar (freetime)
$ - Segno
& - Coda
Tempo markers - = BPM(8/16=s8/s16), where s8 = swing 8ths, s16 = swing 16ths
Tunning: Standard (E A D G B e)
in this song in guitar hero dont be the truelly beggining is like this
1 guitar play this ones and then both guitars do it and enter the voice
1--------------------------------------------------------------------------
2--------------------------------------------------------------------------
3--------------------------------------------------------------------------
4--------------------------------------------------------------------------x7
5--------------------------------------------------------------------------
6-3-3-3-3-3-3-3-2-2-2-2-2-2-2-2-2-2-4-4-4-4-4-4-4-4-4-1-1-1-1-1-1-1-1-1-1-1
(so fuking fast)

both guitars

1--------------------------------------------------------------------------
2--------------------------------------------------------------------------
3--------------------------------------------------------------------------x2
4--------------------------------------------------------------------------
5--------------------------------------------------------------------------
6-1-1-1-1-1-1-1-1-9-9-9-9-9-8-8-8-8-7-7-7-7-1-1-1-1-2-2-2-2-2-4-4-4-4-4-3-3-3-3-3
fast, fast

all this for 2

then you have to make this wear sound whith the bar in the 2 string

then the tipical song

Intro; no guitar.
Riff 1 (2x)
|---------------------------------------------------------------|
|---------------------------------------------------------------|
|---------------------------------------------------------------|
|---------8-9-8----8-7-----7-6----------------------------------|
|-------7--------9------8---------------------------------------|
|-0-0-0---------------------------------------------------------|
pm---|
Riff 2 (2x)
|---------------------------------------------------------------|
|---------------------------------------------------------------|
|---------8-9-8----8-7----7-6-----------------------------------|
|-------7--------9------8---------------------------------------|
|---------------------------------------------------------------|
|-0-0-0---------------------------------------------------------|
pm---|
Riff 3 (4x)
|---------------------------------------------------------------|
|---------------------------------------------------------------|
|---------------------------------------------------------------|
|---------------------------------------------------------------|
|---------------------------------------------------------------|
|-000-000-000-000-000-000-000-000-000-000-000-000---------------|
pm---------------------------------------------|
|---------------------------------------------------------------|
|---------------------------------------------------------------|
|---------------------------------------------------------------|
|-------------3--2----------------------------------------------|
|----------4--------3--2----------------------------------------|
|-0--2--4-------------------------------------------------------|
pm-----|
Riff 4 (2x)(repeat)
|---------------------------------|-----------------------------|
|---------------------------------|-----------------------------|
|---------------------------------|-------------%---------------|
|---------------------------------|-------------%---------------|
|---------------------------------|-----------------------------|
|-5-3-2-0-6-4-3-0-5-3-2-0-6-4-3-0-|-----------------------------|
pm-----------------------------|



|--------------------------------------------------------------|
|--------------------------------------------------------------|
|--------------------------------------------------------------|
|--------------------------------------------------------------|
|--------------------------------------------------------------|
|-5-3-2-0-6-4-3-0-5-3-2-0-6-4-3-0-5-3-2-0-6-4-3-0-5-3-2-0-6-4-3|
pm-----------------------------------------------------------|
|--------------------------------------------------------------|
|--------------------------------------------------------------|
|--------------------------------------------------------------|
|-----------3--------------------------------------------------|
|-----------1--------------------------------------------------|
|-0-5-3-2-0---0-3-5-3-2-0-6-4-3-0-5-3-2-0-6-4-3-0-5-3-2-0-6-4-3|
pm-------| pm-----------------------------------------------|
|--------------------------------------------------------------|
|--------------------------------------------------------------|
|--------------------------------------------------------------|
|--------------------------------------------------------------|
|----5----8----------------------------------------------------|
|-0--3----6----------------------------------------------------|
pm
Riff 5 (8x) (Trapped in Purgatory. . . . . . )
|---------------------------------------------------------------|
|---------------------------------------------------------------|
|--------9--8---------7-----------------------------------------|
|-----7--7--6------7--5-----------------------------------------|
|0000-5-------0000-5--------------------------------------------|
pm--| pm--|
Riff 6 (4x) (pierced from below. . . . .)
|---------------------------------------------------------------|
|---------------------------------------------------------------|
|------------------------------------888888---------------------|
|-------------------------------8-7--888888-7-7-----------------|
|---------7h10p8-7-8-------7-10------666666-7-7-----------------|
|-0-0-0-0------------0-0-0------------------5-5-----------------|
pm-----| pm---|
Riff 7 (4x)
|---------------------------------------------------------------|
|---------------------------------------------------------------|
|----------10-11-10-----10-9-----9-8----------------------------|
|--------9-----------11-------10--------------------------------|
|---------------------------------------------------------------|
|-0-0-0---------------------------------------------------------|
pm---|






Riff 8 2nd time with pick slide
|---------------------------------------------------------------|
|---------------------------------------------------------------|
|---------------------------------------------------------------|
|---------------------------------------------------------------|
|-22--22--22--22--22--22--22--22--------------------------------|
|-00--00--00--00--00--00--00--00--------------------------------|
pm----------------------------|
Riff 9(6x w/Riff 8)
|---------------------------------------------------------------|
|---------------------------------------------------------------|
|---------------------------------------------------------------|
|----------9------------8------------7--------------------------|
|---7--10--------7--10--------7--10--------7-10-9---------------|
|-0-----------0------------0------------0-----------------------|
pm pm pm pm
Riff 10 (4x) (Raining Bloooooood . . . . . . .)
|---------------------------------------------------------------|
|---------------------------------------------------------------|
|---------------------------------------------------------------|
|---------------------------------------------------------------|
|-----5--9------5--8------5--7-----5--4-------------------------|
|-0-0-3--7--0-0-3--6--0-0-3--5-0-0-3--2-------------------------|
pm-| pm-| pm-| pm-|
|---------------------------------------------------------------|
|---------------------------------------------------------------|
|---------------------------------------------------------------|
|---------------------------------------------------------------|
|---------------------------------------------------------------|
|000000000000000000000000000000000000000000000000000000000000000|
Play this with "noise"
|---------------------------------------------------------------|
|---------------------------------------------------------------|
|---------------------------------------------------------------|
|---------------------------------------------------------------|
|---------------------------------------------------------------|
|000000007777777777666666666633333344444444447777777777888888888|

Well, its not the most difficult Slayer song, but you really have to work on pla

Song info
Raining Blood
Slayer
0
  • Rock
  • Thrash
Alternative tracks
Similar songs
South Of Heaven - Slayer
So What - Metallica
The New Order - Testament
Among The Living - Anthrax
Territory - Sepultura

Hi! Hope you enjoy backing track experience.
If you want to help us in the development of the project, feel free to donate!