Vermilion - Slipknot
00:00 / 00:00
Tabs and lyrics
Tunning: Standard (E A D G B e)
Vermilion Part 2
Artist: Slipknot
Album: Vol. 3 (The Subliminal Verses)

Dropped D-Tuning (D-A-D-G-B-E)
Intro = Verse:
G#-Riff B-riff
E--------------------I--------------------|
B--------------------I--------------------|
G--------------------I--------------------|
D--6--8--6--6-6-6-6-6I--9-9-9-9-9-9-9-9-9-|
A--6--6--7--6-6-7-6-7I--9-9-9-9-9-9-9-9-9-|
D--6--6--6--6-6-6-6-6I--9-9-9-9h8-8-8-8-8-|

G#Riff B-Riff
She seemed dressed and not all of me
G#Riff
Stretched across my shame,
B-RIFF
All the torment and the pain

Leaked through and covered me.
G#Riff B-RIFF
I'd do anything to have her to myself,
G#Riff
Just to have her for myself.
B-
I don't know what to do,
A B
I don't know what to do when she makes me sad.
G#Riff B-RIFF
She is everything to me,
G#Riff
The unrequited dream,
B-RIFF
It's all the know one things

The unattainable.
G#Riff B-RIFF
She's a myth that I have to believe in,
G#Riff
All I need to make it real is one more reason.

B
I don't know what to do,
A B
I don't know what to do when she makes me sad.
G F# Bm F#
But I won't let this build up inside of me.
G F# Bm F#
I won't let this build up inside of me.
G F# Bm F#
I won't let this build up inside of me.
G F# B-RIFF F# G B
I won't let this build up inside of me.

G F#
A catch in my throat, choke,
Bm F# G F#
Torn into pieces, I won't. No.
Bm F#
I don't want to be this but


I won't let this build up inside of me. 4X
(won't let this build up inside of me)

Outro=Verse

She isn't real.
I can't make her real.
She isn't real.
I can't make her real.


Chords
G# B A G F# Bm
E-----------------------------2----|
B-----------------------------3----|
G-----------------------------4----|
D-6-------9----7----5----4----4----|
A-6-------9----7----5----4----2----|
D-6-------9----7----5----4---------|
Tunning: Standard (E A D G B e)
-----------------------------------------------------------------------------
Vermilion pt2-SLIPKNOT
-----------------------------------------------------------------------------
Tabbed by:daz
Email:aka_daz@hotmail.com
PLZ TELL ME WHAT U THINK ;)

Tuning:standard
Intro/verse
Guitar1
e|--------------------------------------------------------------------------|
B|--------------------------------------------------------------------------|
G|--1--3--4-----------------------------------------------------------------|
D|-----------1—1h2p1----4-4-4-4-4-4-----------------------------------------|
A|--------------------0-2-2-2-2-2-2-----------------------------------------|
E|--------------------------------------------------------------------------|
Guitar2
e|--------------------------------------------------------------------------|
B|--------------------------------------------------------------------------|
G|--------------------------------------------------------------------------|
D|---------------------2-2-2-2-2-2------------------------------------------|
A|--2-2-2-2-2-2-2-2-2--4-4-4-4-4-4------------------------------------------|
E|--4-4-4-4-4-4-4-4-4-------------------------------------------------------|
Chorus
Guitars1&2
e|--------------------------------------------------------------------------|
B|--------------------------------------------------------------------------|
G|--------------------------------------------------------------------------|
D|--2-2-2-2-2-2--4-4-4-4-4-4-4-4-4------------------------------------------|
A|--0-0-0-0-0-0--2-2-2-2-2-2-2-2-2------------------------------------------|
E|--------------------------------------------------------------------------|
(I won't let this build up...)
Guitar1
e|-----2-3-2-0---2-3-2-0----2-3-2-0-----------------------------------------|
B|---2---------2----------2-------------------------------------------------|
G|--------------------------------------------------------------------------|
D|--------------------------------------------------------------------------|
A|--------------------------------------------------------------------------|
E|--------------------------------------------------------------------------|
Not sure 'bout this bit
Guitar 2
e|----0----------0----------0-----------------------------------------------|
B|--0---2-3-2--0---2-3-2--0---2-3-2-----------------------------------------|
G|--------------------------------------------------------------------------|
D|--------------------------------------------------------------------------|
A|--------------------------------------------------------------------------|
E|--------------------------------------------------------------------------|
Ending
Both guitars
e|--------------------------------------------------------------------------|
B|----------17--16----------------------------------------------------------|
G|--13--15------------------------------------------------------------------|
D|--------------------------------------------------------------------------|
A|--------------------------------------------------------------------------|
E|--------------------------------------------------------------------------|


| / slide up
| \ slide down
| h hammer-on
| p pull-off
| ~ vibrato
| + harmonic
| x Mute note
=============================================================================
Tunning: Standard (E A D G B e)
Vermillion Pt.2 -Slipknot
-------------------------------------------------------------------------------
Tabbed by:George(sic)Fan
Email:

Tuning:B,F#,B,E,G#,C#

|-----------------------------------------------------------------------------|
|-----------------------------------------------------------------------------|
|--4----6----12---11---7----6-------------------------------------------------|
|--x----x----xx---xx---x----x-------------------------------------------------|
|--2----4----10---9----5----4-------------------------------------------------|
|-----------------------------------------------------------------------------|
Intro. Figure the rythm out yourself Gt.1 strumm chords

|---------------------------------------------------------------------------|
|---------------------------------------------------------------------------|
|---------------------------------------------------------------------------|
|----9---11----5P4---0------------------------------------------------------|
|---------------------------------------------------------------------------|
|---------------------------------------------------------------------------|
Guitar 2 backups that with this

|---3----3------------------------------------------------------------------|
|---5----5------Strumm------------------------------------------------------|
|---3----3------------------------------------------------------------------|
|---5----5------------------------------------------------------------------|
|---3----3------------------------------------------------------------------|
|---------------------------------------------------------------------------|
And i dont know what to do when she makes me sad

|---------------------------------------------------------------------------|
|----6p5--6--5---6-5-6p5----6---5----6p5---you-get-the-idea-----------------|
|---------------------------------------------------------------------------|
|---------------------------------------------------------------------------|
|---------------------------------------------------------------------------|
|---------------------------------------------------------------------------|
Chourus:and i wont let this build up inside of me Gt.1

|---------------------------------------------------------------------------|
|---------------------------------------------------------------------------|
|--------------------------------15--14--Repeat-measure---------------------|
|---12----14--15--14----12--14----------------------------------------------|
|---------------------------------------------------------------------------|
|---------------------------------------------------------------------------|
Chourus Gt.2

|-------------------------------------------------------------------------------|
|-----------------------5---3---3p2h3-------------------------------------------|
|---7---9--10---9---5---3---1---1-----------------------------------------------|
|---x---x---x---7---3---5---3---3-----------------------------------------------|
|---5---7---8---7---3---3---1---1-----------------------------------------------|
|-----------------7---3---------------------------------------------------------|
During the violin part strumm all chords figure rhytm out yourself.

Im not a 100% sure of my interpritation of this song but i did my best. Its a pretty
good start i must say

-----------15--14-|
12---14-----------|
------------------|
------------------|
------------------|
------------------|
END OF SONG
| / slide up
| \ slide down
| h hammer-on
| p pull-off
| ~ vibrato
| + harmonic
| x Mute note
===============================================================================
Tunning: Standard (E A D G B e)
Artist: Slipknot
Song: Vermilion part 2
Tuning: B F# B E G# C#

e|------------------|------------------------|--------------------|-------------------|
B|------------------|------------------------|--------------------|-------------------|
G|------------------|------------------------|-7-----7--7--7----7-|-7-7--7--7--7-7--0-|
D|-12-12---12-12----|----12---12-12-12-12--0-|-x-----x--x--x----x-|-x-x--x--x--x-x--0-|
A|-9--9--9--9--9----|-10-9--9-9---9-10--9--0-|-5--5--5--5--5--5-5-|-4-4--4--4--4-4--0-|
E|-9-----9-11-11--9-|-9--9--9-----9--9--9----|-0--0--0--0-----0---|---0-----0----0----|

e|------------------|------------------------|--------------------|-------------------|
B|------------------|------------------------|--------------------|-------------------|
G|-4------6---------|------------------------|--------------------|-------------------|
D|-------------5----|---(5)-/-4--------------|--------------------|-------------------|
A|------------------|------------------------|--------------------|-------------------|
E|------------------|------------------------|-0------------------|-------------------|

Play that up there 5 times.

then he goes "i dont know what to do_____"

"do_____________________________________ When she makes me_____
e|-------0-----0----|--------------------|-------0------0-----|--0----------------|
B|-1-----1-----1----|--1--1--1--1---1----|-1-----1------1-----|--1------1------1--|
G|-0-----0----------|--0--0--0--0---0----|-0-----0------0-----|--0------0------0--|
D|-2-----2----------|--2--2--2--2---2----|-2---2-----2--------|--2----------2-----|
A|-3----------------|--3--3--3--3---3----|-3---3-----3--------|--3---3------3-----|
E|------------------|--------------------|--------------------|-------------------|


e|---------------------|-----------------------|
B|---------------------|-----------------------|
G|-7--7--7--7--7--7--7-|----7--7--7---7--7--7--| play all that 4 times then go back to..
D|-x--x--x--x--x--x--x-|----x--x--x---x--x--x--|
A|-5--5--5--5--5--5--5-|----5--5--5---5--5--5--|
E|-0--0--0--0--0--0----|-0--7--7--7---6--6--6--|


e|------------------|------------------------|--------------------|-------------------|
B|------------------|------------------------|--------------------|-------------------|
G|------------------|------------------------|-7-----7--7--7----7-|-7-7--7--7--7-7--0-|
D|-12-12---12-12----|----12---12-12-12-12--0-|-x-----x--x--x----x-|-x-x--x--x--x-x--0-|
A|-9--9--9--9--9----|-10-9--9-9---9-10--9--0-|-5--5--5--5--5--5-5-|-4-4--4--4--4-4--0-|
E|-9-----9-11-11--9-|-9--9--9-----9--9--9----|-0--0--0--0-----0---|---0-----0----0----|\
x3
e|------------------|------------------------|--------------------|-------------------|/
B|------------------|------------------------|--------------------|-------------------|
G|-4------6---------|------------------------|--------------------|-------------------|
D|-------------5----|---(5)-/-4--------------|--------------------|-------------------|
A|------------------|------------------------|--------------------|-------------------|
E|------------------|------------------------|-0------------------|-------------------|

e|---------------------|-----------------------|
B|---------------------|-----------------------|
G|-7--7--7--7--7--7--7-|----7--7--7---7--7--7--| (play all that 2 times then go the chorus which is)
D|-x--x--x--x--x--x--x-|----x--x--x---x--x--x--|
A|-5--5--5--5--5--5--5-|----5--5--5---5--5--5--|
E|-0--0--0--0--0--0----|-0--7--7--7---6--6--6--|

[Chorus]
"wont let this build up in side of me"
e|-------0----------|---------------0--------|---------0----------|--0----------0-----|
B|------------------|--10--------------------|--------------------|-------------------|
G|------------10----|-------10---------------|---------------10---|-------10----------|
D|-12---------------|------------------------|-12-----------------|-------------------|
A|------------------|------------------------|--------------------|-------------------|
E|------------------|------------------------|--------------------|-------------------|

"i wont let this build up in side of me"
e|-------0----------|---------------0--------|---------0----------|-------------0-----|
B|------------------|--10--------------------|-11-----------------|-10----------------|
G|------------10----|-------10---------------|---------------10---|-------10----------|
D|-12---------------|------------------------|--------------------|-------------------|
A|------------------|------------------------|--------------------|-------------------|
E|------------------|------------------------|--------------------|-------------------|

(play chorus twice then play)

this part is played after the last "wont let this build up inside of me"
e|------0--------0--|--0---------------------|--------------------|-------------------|
B|--6-------6-------|--6---------------------|-3---3---3--3-------|-1---1---1---1--1--|
G|--7-------7-------|--7-----9------10-------|-3---3---3--3-------|-0---0---0---0--0--|
D|------------------|--------x------x--------|-3---3---3--3-------|-2---2---2---2--2--|
A|------------------|--------7------8--------|-1---1---1--1---0---|-3---3---3---3--3--|
E|------------------|------------------------|--------------------|-------------------|

(play that twice until)

"i catch in my throat choke torn onto pieces"
e|------------------|------------------------|-------------------|-------------------|
B|------------------|------------------------|-------------------|-6---6---6---6--6--|
G|------------------|-7----6----7-----7------|--7-----6------7---|-7---7---7---7--7--|
D|-5--5---5---5--0--|-x----x----x-----x------|--x-----x------x---|-7---7-------7-----|
A|-5--5---5---5--0--|-5----4----5-----5------|--5-----4------5---|-5---5-------5-----|
E|-5--5---5---5-----|-0----------------------|--0----------------|-------------------|

" i wont no i dont want to be thisbut i"
e|----------------|------------------------|--------------------|-------------------|
B|3--3---3--3--3--|------------------------|--------------------|-6--6---6---6--6---|
G|3--3---3--3--3--|-8/--7----5-----7-------|-8/--7---5/---9---7-|-7--7---7---7--7---|
D|3--3---3--3--3--|-x--------x-----x-------|-x-------x----x---x-|-7--7---7---7--7---|
A|1--1---1--1--1--|-6/--5----3-----5-------|-6/--5---3/---7---5-|-0--0---0---0--0---|
E|----------------|-0--------0-----0----0--|-0-------0----0-----|-------------------|

"wont let this build up in side of me"
e|-------0----------|---------------0--------|---------0----------|--0----------0-----|
B|------------------|--10--------------------|--------------------|-------------------|
G|------------10----|-------10---------------|---------------10---|-------10----------|
D|-12---------------|------------------------|-12-----------------|-------------------|
A|------------------|------------------------|--------------------|-------------------|
E|------------------|------------------------|--------------------|-------------------|

"i wont let this build up in side of me"
e|-------0----------|---------------0--------|---------0----------|-------------0-----|
B|------------------|--10--------------------|-11-----------------|-10----------------|
G|------------10----|-------10---------------|---------------10---|-------10----------|
D|-12---------------|------------------------|--------------------|-------------------|
A|------------------|------------------------|--------------------|-------------------|
E|------------------|------------------------|--------------------|-------------------|

(play chorus three 2.5 times)

e|------------------|------------------------|--------------------|-------------------|
B|------------------|------------------------|--------------------|-------------------|
G|------------------|------------------------|-7-----7--7--7----7-|-7-7--7--7--7-7--0-|
D|-12-12---12-12----|----12---12-12-12-12--0-|-x-----x--x--x----x-|-x-x--x--x--x-x--0-|
A|-9--9--9--9--9----|-10-9--9-9---9-10--9--0-|-5--5--5--5--5--5-5-|-4-4--4--4--4-4--0-|
E|-9-----9-11-11--9-|-9--9--9-----9--9--9----|-0--0--0--0-----0---|---0-----0----0----|

(6 times. this is when he keeps saying "she isnt real, i cant make her real")

e|------------------|------------------------|--------------------|-------------------|
B|------------------|------------------------|--------------------|-------------------|
G|-4------6---------|------------------------|--------------------|-------------------|
D|-------------5----|---(5)-/-4--------------|--------------------|-------------------|
A|------------------|------------------------|--------------------|-------------------|
E|------------------|------------------------|-0------------------|-------------------|

[Outro]
e|----------------------3---|--------2-----------------|
B|---------2----------------|--------------------------|
G|-4------------------------|--------------------------|
D|--------------------------|--------------------------|
A|-2------------------------|--------------------------|
E|--------------------------|--------------------------|


************************************

| x Dead note
| (n) Ghost note
| / Slide up

************************************
Tunning: Standard (E A D G B e)
-------------------------------------------------------------------------------
Vermilion Pt. 2 - Slipknot
Words and Music by: M. Shawn Crahan, Chris Fehn, Paul Gray, Nathan Jordison, Corey Taylor,
Mick Thompson, and Sid Wilson.
-------------------------------------------------------------------------------

Tabbed by: [travis]


Tuning: B F# B E G# C# (low to high)
All acoustic.

This is from the official tab book.


[Intro]

Guitar 1:
C|---------------------------------------------------------------------------|
G|---------------------------------------------------------------------------|
E|-4------6------------------------------------------------------------------|
B|---------------(5)p4-------------------------------------------------------|
F|---------------------------------------------------------------------------|
B|---------------------------------0~----------------------------------------|

Guitar 2:
C|-------------------------------------------------------------------------------|
G|-------------------------------------------------------------------------------|
E|-----------------------------------------------7---7-7-7---7--7----7-7-7-7-7-0-|
B|12-12----12-12--12-------12----12-12--12-12-0--x---x-x-x---x--x----x-x-x-x-x-0-|
F|-9--9-9---9--9--10----10--9--9--9--9--10--9-0--5-5-5-5-5-5-5--5\4--4-4-4-4-4-0-|
B|-9----9--11------9--9--9--9--9-----9---9--9----0-0-0-0---0---------0---0---0---|


Play the intro twice.


[Verse]

Play the intro 4 more times now.
"She seemed dressed in all of me, stretched across my shame. All the torment and the pain
leaked through and covered me. I'd do anything to haver her to myself, just to have her for
myself. Now I don't know what to do, I don't know what to do."


Guitar 1:
" when she makes me sad."
C|---------------------------------------------------------------------------|
G|-`1--------------------------------------`5--------------------------------|
E|-`0--------------------------------------`2--------------------------------|
B|-`2------------------------------------------------------------------------|
F|-`3------------------------------------------------------------------------|
B|---------------------------------------------------------------------------|
The ` means you strum that chord up with one strum.

Guitar 2:
C|----0---0--------------------0----0---0------------------------------------|
G|-1--1---1--1--1-1-1-1--1-----1----1---1----1-----1-------------------------|
E|-0--0------0--0-0-0-0--0-----0----0---0----0-----0-------------------------|
B|-2--2------2--2-2-2-2--2---2----2-----2-------2----------------------------|
F|-3---------3--3-3-3-3--3---3----3-----3--3----3----------------------------|
B|---------------------------------------------------------------------------|


[Interlude]

Guitar 1:
C|---------------------------------------------------------------------------|
G|---------------------------------------------------------------------------|
E|---------------------------------------------------------------------------|
B|-0-------------------------------0-----------------------------------------|
F|-0-------------------------------0-----------------------------------------|
B|-0-------------------------------0-----------------------------------------|


C|---------------------------------------------------------------------------|
G|---------------------------------------------------------------------------|
E|-7--7-7-7-7-7-7----7-7-7-7--7-7--7--7-7-7-7-7-7-----7-7-7-7--7-------------|
B|-x--x-x-x-x-x-x----x-x-x-x--x-x--x--x-x-x-x-x-x-----x-x-x-x--x--0----------|
F|-5--5-5-5-5-5-5----5-5-5-5--5-5--5--5-5-5-5-5-5-----5-5-5-5--5--0----------|
B|-0--0-0-0-0-0---0--7-7-7-6--6-6--0--0-0-0-0-0----0--7-7-7-6--6-------------|



Play the verse again:

Guitar 1:
C|---------------------------------------------------------------------------|
G|---------------------------------------------------------------------------|
E|-4------6------------------------------------------------------------------|
B|---------------(5)p4-------------------------------------------------------|
F|---------------------------------------------------------------------------|
B|---------------------------------0~----------------------------------------|

Guitar 2:
C|-------------------------------------------------------------------------------|
G|-------------------------------------------------------------------------------|
E|-----------------------------------------------7---7-7-7---7--7----7-7-7-7-7-0-|
B|12-12----12-12--12-------12----12-12--12-12-0--x---x-x-x---x--x----x-x-x-x-x-0-|
F|-9--9-9---9--9--10----10--9--9--9--9--10--9-0--5-5-5-5-5-5-5--5\4--4-4-4-4-4-0-|
B|-9----9--11------9--9--9--9--9-----9---9--9----0-0-0-0---0---------0---0---0---|


Play the Interlude again also.

Guitar 1:
C|---------------------------------------------------------------------------|
G|---------------------------------------------------------------------------|
E|---------------------------------------------------------------------------|
B|-0-------------------------------0-----------------------------------------|
F|-0-------------------------------0-----------------------------------------|
B|-0-------------------------------0-----------------------------------------|


C|---------------------------------------------------------------------------|
G|---------------------------------------------------------------------------|
E|-7--7-7-7-7-7-7----7-7-7-7--7-7--7--7-7-7-7-7-7-----7-7-7-7--7-------------|
B|-x--x-x-x-x-x-x----x-x-x-x--x-x--x--x-x-x-x-x-x-----x-x-x-x--x--0----------|
F|-5--5-5-5-5-5-5----5-5-5-5--5-5--5--5-5-5-5-5-5-----5-5-5-5--5--0----------|
B|-0--0-0-0-0-0---0--7-7-7-6--6-6--0--0-0-0-0-0----0--7-7-7-6--6-------------|


[Chorus]

Guitar 1:
"But I won't let this build up inside of me."
C|----0---------------0-------0--------0------0------------------------------|
G|------------10-------------------------------------------------------------|
E|-------10-------10-------------10------10----------------------------------|
B|-12---------------------12-------------------------------------------------|
F|---------------------------------------------------------------------------|
B|---------------------------------------------------------------------------|

Guitar 2:
C|---0------0---------0----0--------0-----0-------0----0---------------------|
G|---6---6----------6----6--------6----6--------6---6------------------------|
E|---7--------------7----7--------7----7--------7---7------------------------|
B|---------------------------------------------------------------------------|
F|---------------------------------------------------------------------------|
B|-8------------7--------------0--------------3------------------------------|

Guitar 1:
"I won't let this build up inside of me."
C|-----0------------------0--------0---------------------0-------------------|
G|--------------10------------11------------10-------------------------------|
E|---------10-------10-----------------10--------10--------------------------|
B|-12------------------------------------------------------------------------|
F|---------------------------------------------------------------------------|
B|---------------------------------------------------------------------------|

Guitar 2:
C|-------0----0--------0------0---------0------0----------0---------0--------|
G|----6----6--------6-----6----------6-----6---------6---------6-------------|
E|----7----7--------7-----7----------7-----7---------7---------7-------------|
B|---------------------------------------------------------------------------|
F|---------------------------------------------------------------------------|
B|-8-------------7---------------0-----------------3-------------------------|

For the rest of the song, you're basically playing all of this tab over again.



************************************

| x Dead note
| \ Slide down
| ~ Vibrato
| p Pull Off

************************************
Tunning: Standard (E A D G B e)
Vermilion Pt. 2

Drop D tuning 1 1/2 steps:
(low to high) B-F#-B-E-G#-C#


Intro
(Guitar 1 Acous.)
|----------|----------|--------|------|
|----------|----------|--------|------|
|-4--------|----------|--------|------|
|-----6----|----------|--------|------|
|--------5-|-(5)\4----|--------|------|
|----------|----------|-0------|------|
|
|
(Guitar 2 Acous.)
|-------------------------------------|
|-------------------------------------|
|-------------------------------------|
|-12---12-------12---12---12---12-----|
|-9----9----9---9----9----9----10-----|
|-9---------9---11---11--------9----9-|
| |
| |
|-------------------------------------|
|-------------------------------------|
|-------------------------------------|
|------12-------12---12---12---12---0-|
|-10---9----9---9----9----10---9----0-|
|-9----9----9--------9----9----9------|
| |
| |
|-------------------------------------|
|-------------------------------------|
|-7----------7-----7-----7---------7--|
|-x----------x-----x-----x---------x--|
|-5-----5----5-----5-----5-----5---5--|
|-0-----0----0-----0-----------0------|
| |
| |
|-------------------------------------|
|-------------------------------------|
|-7-----7----7-----7-----7-----7---0--|
|-x-----x----x-----x-----x-----x---0--|
|-5\4---4----4-----4-----4-----4---0--|
|-------0----------0-----------0------|





(Guitar 1 Acous.) When she makes me...
|----------|-------|-------|----------|
|-1--------|-------|-------|------5---|
|-0--------|-------|-------|------2---|
|-2--------|-------|-------|----------|
|-3--------|-------|-------|----------|
|----------|-------|-------|----------|
|
|
(Guitar 2 Acous.)
|-------0----0------------------------|
|---1---1----1------------------------|
|---0---0-----------------------------|
|---2---2-----------------------------|
|---3---------------------------------|
|-------------------------------------|
| |
| |
|-------------------------------------|
|-1--------1------1------1------1-----|
|-0--------0------0------0------0-----|
|-2--------2------2------2------2-----|
|-3--------3------3------3------3-----|
|-------------------------------------|
| |
| |
|-----------------0-------------0-----|
|-1---------------1-------------1-----|
|-0---------------0-------------0-----|
|-2--------2-------------2------------|
|-3--------3-------------3------------|
|-------------------------------------|
| |
| |
|-0-----------------------------------|
|-1---------------1-------------1-----|
|-0---------------0-------------0-----|
|-2----------------------2------------|
|-3--------3-------------3------------|
|-------------------------------------|





Introlude
(Guitar 1 Acous.)
|----------|--------|----------|------|
|----------|--------|----------|------|
|----------|--------|----------|------|
|-0--------|--------|-0--------|------|
|-0--------|--------|-0--------|------|
|-0--------|--------|-0--------|------|
|
|
(Guitar 2 Acous.)
|-------------------------------------|
|-------------------------------------|
|-7-----7----7----7----7----7----7----|
|-X-----X----X----X----X----X----X----|
|-5-----5----5----5----5----5----5----|
|-0-----0----0----0----0----0---------|
| |
| |
|-------------------------------------|
|-------------------------------------|
|-----7----7----7----7------7----7----|
|-----X----X----X----X------X----X----|
|-----5----5----5----5------5----5----|
|-0---7----7----7----6------6----6----|
| |
| |
|-------------------------------------|
|-------------------------------------|
|-7-----7----7----7----7----7----7----|
|-X-----X----X----X----X----X----X----|
|-5-----5----5----5----5----5----5----|
|-0-----0----0----0----0----0---------|
| |
| |
|-------------------------------------|
|-------------------------------------|
|-----7----7----7----7------7---------|
|-----X----X----X----X------X----0----|
|-----5----5----5----5------5----0----|
|-0---7----7----7----6------6---------|





(Guitar 1 Acous.)
|------------------|------------------|
|------------------|------------------|
|------------------|------------------|
|-0----------------|------------------|
|-0----------------|------------------|
|-0----------------|------------------|
|
|
(Guitar 2 Acous.)
|-------------------------------------|
|-------------------------------------|
|-7----7----7----7----7----7----7---7-|
|-X----X----X----X----X----X----X---X-|
|-5----5----5----5----5----5----5---5-|
|-0----0----0----0----0----0----0---0-|
| |
| |
|-------------------------------------|
|-------------------------------------|
|-7----7----7----7-----7--------7---7-|
|-X----X----X----X-----X--------X---X-|
|-5----5----5----5-----5--------5---5-|
|-0----7----7----7-----6--------6---6-|





Chorus
(Guitar 1 Acous.)
|----0----|-------0-|----0----|-0----0-|
|---------|-10------|---------|--------|
|------10-|----10---|------10-|---10---|
|-12------|---------|-12------|--------|
|---------|---------|---------|--------|
|---------|---------|---------|--------|
|
|
(Guitar 2 Acous.)
|---0---0-|-----0---0-|-----0---0-|-----0---0-|
|---6-6---|---6---6---|---6---6---|---6---6---|
|---7-----|---7---7---|---7---7---|---7---7---|
|---------|-----------|-----------|-----------|
|---------|-----------|-----------|-----------|
|-8-------|-7---------|-0---------|-3---------|

Chorus Cont.
(Guitar 1 Acous.)
|----0----|-------0-|----0----|-10----0-|
|---------|-10------|---------|---------|
|------10-|----10---|------10-|----10---|
|-12------|---------|-11------|---------|
|---------|---------|---------|---------|
|---------|---------|---------|---------|
|
|
(Guitar 2 Acous.)
|-----0---0-|-----0---0-|-----0---0-|-----0---0-|
|---6---6---|---6---6---|---6---6---|---6---6---|
|---7---7---|---7---7---|---7---7---|---7---7---|
|-----------|-----------|-----------|-----------|
|-----------|-----------|-----------|-----------|
|-8---------|-7---------|-0---------|-3---------|





Introlude 2
(Guitar 1 Acous.)
|---------|-------|---------|------|
|---------|-------|---------|------|
|---------|-------|---------|------|
|-12------|-------|---------|------|
|---------|-------|---------|------|
|---------|-------|---------|------|
|
|
(Guitar 2 Acous.)
|-------------------0-------------0---|
|-----------6--------------6----------|
|-----------7--------------7----------|
|-------------------------------------|
|-------------------------------------|
|-0-----------------------------------|
| |
| |
|-0-----------------------------------|
|-6-----------------------------------|
|-7------------9------------10--------|
|--------------X------------X---------|
|--------------7------------8---------|
|-------------------------------------|
| |
| |
|-------------------------------------|
|-3---------3------3------3-----------|
|-3---------3------3------3-----------|
|-3---------3------3------3-----------|
|-1---------1------1------1------0----|
|-------------------------------------|
| |
| |
|-------------------------------------|
|-1---------1------1------1------1----|
|-0---------0------0------0------0----|
|-2---------2------2------2------2----|
|-3---------3------3------3------3----|
|-------------------------------------|





(Guitar 2 Acous.)
|-------------------------------------|
|-1---------1------1------1------1----|
|-0---------0------0------0------0----|
|-2---------2------2------2------2----|
|-3---------3------3------3------3----|
|-------------------------------------|
| |
| |
|-------------------------------------|
|--------3-------3-------3------------|
|--------3-------3-------3------------|
|--------3-------3-------3------------|
|--------1-------1-------1------------|
|-------------------------------------|
| |
| |
|-1---------1------1------1-----------|
|-3---------3------3------3-----------|
|-2---------2------2------2------0----|
|-0---------0------0------0------0----|
|-0---------0------0------0------0----|
|-0---------0------0------0-----------|





(Guitar 2 Acous.)
|-------------------------------------|
|-------------------------------------|
|-------------------------------------|
|-5--------5------5------5------0-----|
|-5--------5------5------5------0-----|
|-5--------5------5-------------------|
| |
| |
|-------------------------------------|
|-------------------------------------|
|-7--------6---------7---------7------|
|-X--------X---------X---------X------|
|-5--------4---------5---------5------|
|-0-----------------------------------|
| |
| |
|-------------------------------------|
|-------------------------------------|
|-7------------6------------7---------|
|-X------------X------------X---------|
|-5------------4------------5---------|
|-0-----------------------------------|
| |
| |
|-------------------------------------|
|-6------6-----6-----6-----6----------|
|-7------7-----7-----7-----7----------|
|-7------7-----------7----------------|
|-5------5-----------5----------------|
|-------------------------------------|
| |
| |
|-------------------------------------|
|-3---------3------3------3------3----|
|-3---------3------3------3------3----|
|-3---------3------3------3------3----|
|-1---------1------1------1------1----|
|-------------------------------------|





(Guitar 2 Acous.)
|-------------------------------------|
|-------------------------------------|
|-8\7--------5--------7---------------|
|-X----------X--------X---------------|
|-6\5--------3--------5---------------|
|-0----------0--------0--------0------|
| |
| |
|-------------------------------------|
|-------------------------------------|
|-8\7--------5 / 9--------7-----------|
|-X----------X---X--------X-----------|
|-6\5--------3 / 7--------5-----------|
|-0----------0---0--------------------|
| |
| |
|-------------------------------------|
|-6-------6------6------6------6------|
|-7-------7------7------7------7------|
|-7-------7------7------7------7------|
|-0-------0------0------0------0------|
|-------------------------------------|
| |
| |
|------------------------------0------|
|-6-------6------6------6-------------|
|-7-------7------7------7-------------|
|-0-------0------0------0-------------|
|-X-------X------X------X-------------|
|-8-------8------8------8-------------|




Tunning: Nashville (E A D G B E)
Vermilion PT.2 - Slipknot by dilie1992

STANDARD TUNING E A D G B e


E|---------------------------------------------------|
B|---------------------------------------------------|
G|---------------------------------------------------|
D|-6-6-6-8-8-8---------------------------------------|
A|-6-6-6-6-6-6-7-7-7-6-6-6-6-7----6---6--------------|
E|-4-4-4-4-4-4-4-4-4-4-4-4-4-4----4---4--------------|
D D D D D D D D D D D D D D D D

E|---------------------------------------------------|
B|---------------------------------------------------|
G|--4-4-4-4-4-4-4-4-4-4-4-4-4-4-4-4------------------|
D|--4-4-4-4-4-4-4-4-4-4-4-4-4-4-4-4------------------|
A|--2-2-2-2-2-2-2-2-1-1-1-1-1-1-1-1------------------|
E|---------------------------------------------------|
D U D U D U D U D U D U D U D U

now strum A chord

A D D U U D D U D U D D U D U D D U D U D

E|---------------------------------------------------|
B|---------------------------------------------------|
G|--4-4-4-4-4----4-4-4-4-4--4-4----------------------|
D|--4-3-3-3-3----3-3-3-3-3--3-3----------------------|
A|--2-2-2-2-2----2-2-2-2-2--2-2----------------------|
E|---------------------------------------------------|
D D U D U D D U D U D U



other chord
GM7 F# Bm11 D5(6/9)
2 2 0 0
0 2 3 0
0 3 4 7
0 4 4 7
x 4 2 5
3 2 x x


G7M F# Bm11 D5(6/9)
But I won't let this build up inside of me (3x) arpeggio
G7M F# Bm11
But I won't let this build up inside of me

E|---------------------------------------------------|
B|----3---3------3---3------3---3------3---3---------|
G|------6---6------6---6------6---6------6---6-------| (3x)
D|--5----------4---------------------0---------------|
A|------------------------2--------------------------|
E|---------------------------------------------------|

E|---------------------------------------------------|
B|----3---3------3---3------3---3--------------------|
G|------6---6------6---6------6---6------------------|
D|--5----------4-------------------------------------|
A|------------------------2--------------------------|
E|---------------------------------------------------|
Tunning: Drop D (D A D G B E)
VERMILLION
As recorded by Slipknot
(From the 2004 Album VOLUME 3: THE SUBLIMINAL VERSES)

Drop D, Down 1 1/2 steps


[Intro]

Moderately Q=143
N.C.
4/4
Gtrs IV, V
E|-----------15--|-(15)-14-(14)------|-(14)--------|-(14)----|
B|------14-------|-------------------|-------------|---------|
G|-16------------|-------------------|-------------|---------|
D|---------------|-------------------|-------------|---------|
A|---------------|-------------------|-------------|---------|
D|---------------|-------------------|-------------|---------|


Bmadd9
Gtrs I, II
PM| PM| PM--| PM---|

E|---------------------|------------------------|
B|o--------------------|------------------------|
G|---4------6------6---|-------6----------6-6-6-|
D|---x------x------5-5-|---5---4---4--4-4-5-4-x-|
A|o--5-5-5--5-5-5------|----------------------5-|
D|---------------------|------------------------|
|
| Gtrs IV, V
E|----------------15---|-(15)-14-(14)-----------|
B|o--------14----------|------------------------|
G|--16-----------------|------------------------|
D|---------------------|------------------------|
A|o--------------------|------------------------|
D|---------------------|------------------------|


D C#5
PM-------| ~
3x
E|----------------------|------------------||
B|----------------------|-----------------o||
G|--------------6s10-10-|------6-6-6-6-----||
D|---4--4-4-4-4-x-----x-|------x-x-x-x-----||
A|---5--5-5-5-5-4s=8--8-|------4-4-4-4----o||
D|----------------------|---0--------------||
|
| 3x
E|-(14)-----------------|-(14)-------------||
B|----------------------|-----------------o||
G|----------------------|------------------||
D|----------------------|------------------||
A|----------------------|-----------------o||
D|----------------------|------------------||


Bmadd9
Gtr I
PM| PM| PM--| PM---|

E|--------------------|------------------------|
B|--------------------|------------------------|
G|--4------6------6---|-------6----------6-6-6-|
D|--x------x------5-5-|---5---4---4--4-4-5-4-x-|
A|--5-5-5--5-5-5------|----------------------5-|
D|--------------------|------------------------|
|
| Gtr II
| PM| PM| PM--| PM---|
E|--------------------|------------------------|
B|--------------------|------------------------|
G|--4------6------6---|-------6----------6-6-6-|
D|--x------x------5-5-|---5---4---4--4-4-5-4-x-|
A|--5-5-5--5-5-5------|----------------------5-|
D|--------------------|------------------------|
|
| Gtrs IV, V
E|---------------15---|-(15)-14-(14)-----------|
B|--------14----------|------------------------|
G|-16-----------------|------------------------|
D|--------------------|------------------------|
A|--------------------|------------------------|
D|--------------------|------------------------|


D C#5
PM-------| ~~
E|----------------------|-------------------------||
B|----------------------|-------------------------||
G|--------------6s10-10-|--10s=12-12s14-14--14\---||
D|---4--4-4-4-4-x-----x-|---x------x-----x---x----||
A|---5--5-5-5-5-4s=8--8-|---8s=10-10s12-12--12\---||
D|----------------------|-------------------------||
|
| PM-------| ~~
E|----------------------|-------------------------||
B|----------------------|-------------------------||
G|--------------6s10-10-|-------6--6--6--6--------||
D|---4--4-4-4-4-x-----x-|-------x--x--x--x--------||
A|---5--5-5-5-5-4s=8--8-|-------4--4--4--4--------||
D|----------------------|---0---------------------||
|
E|-(14)-----------------|-(14)--------------------||
B|----------------------|-------------------------||
G|----------------------|-------------------------||
D|----------------------|-------------------------||
A|----------------------|-------------------------||
D|----------------------|-------------------------||


[Verse]

Bm G5 F#5 G5F#D5 C#5
E|------------------|--------------|-------------------|------------------||
B|o-----------------|--------------|-------------------|-----------------o||
G|------------------|--------------|-----------6s10-10-|---6-6-6-6--------||
D|------------------|--------------|-----------x-----x-|---x-x-x-x--------||
A|o-----------------|--------------|-----------4s=8--8-|-0-4-4-4-4-------o||
D|------------------|--------------|-------------------|------------------||
|
| PM| PM| PM--| PM--| PM------| PM--|
E|-----------------|-----------------|-------------------|------------------||
B|o----------------|-----------------|-------------------|-----------------o||
G|-------------6---|-----------------|-----------6s10-10-|---6-6-6-6--------||
D|-0-----------5---|-----------------|-----------x-----x-|---x-x-x-x--------||
A|o2-2-2-4-4-4---5-|-5-4-4-4-4-5-4-0-|-----------4s=8--8-|-0-4-4-4-4-4-4-4-o||
D|---------------5-|-5-4-4-4-4-5-4-0-|-0-0-0-0-0---------|------------------||



Bm G5 F#5 G5F#D5
PM| PM| PM--| PM---|

E|--------------------|------------------------|
B|--------------------|------------------------|
G|----------------6---|------------------------|
D|--0-------------5---|------------------------|
A|--2-2-2--4-4-4----5-|---5---4---4--4-4-5-4-0-|
D|------------------5-|---5---4---4--4-4-5-4-0-|
|
| PM| PM| PM--| PM---|
E|--------------------|------------------------|
B|--------------------|------------------------|
G|--4------6------6---|-------6----------6-6-6-|
D|--x------x------5-5-|---5---4---4--4-4-5-4-x-|
A|--5-5-5--5-5-5------|----------------------5-|
D|--------------------|------------------------|
|
| Gtrs IV, V
E|---------------15---|-(15)-14-(14)-----------|
B|--------14----------|------------------------|
G|-16-----------------|------------------------|
D|--------------------|------------------------|
A|--------------------|------------------------|
D|--------------------|------------------------|


C#5
PM-------| PM--|

E|----------------------|---------------------|
B|----------------------|---------------------|
G|--------------6s10-10-|------6-6-6-6--------|
D|--------------x-----x-|------x-x-x-x--------|
A|--------------4s=8--8-|---0--4-4-4-4-4-4-4--|
D|---0--0-0-0-0---------|---------------------|
|
| PM-------| ~
E|----------------------|---------------------|
B|----------------------|---------------------|
G|--------------6s10-10-|------6-6-6-6--------|
D|---4--4-4-4-4-x-----x-|------x-x-x-x--------|
A|---5--5-5-5-5-4s=8--8-|------4-4-4-4--------|
D|----------------------|---0-----------------|
|
E|-(14)-----------------|-(14)----------------|
B|----------------------|---------------------|
G|----------------------|---------------------|
D|----------------------|---------------------|
A|----------------------|---------------------|
D|----------------------|---------------------|


Bm G5 F#5 G5F#D5
PM| PM| PM--| PM---|
E|--------------------|------------------------|
B|--------------------|------------------------|
G|--4------6------6---|-------6----------6-6-6-|
D|--x------x------5-5-|---5---4---4--4-4-5-4-x-|
A|--5-5-5--5-5-5------|----------------------5-|
D|--------------------|------------------------|
|
| PM| PM| PM--| PM---|
E|--------------------|------------------------|
B|--------------------|------------------------|
G|----------------6---|------------------------|
D|--0-------------5---|------------------------|
A|--2-2-2--4-4-4----5-|---5---4---4--4-4-5-4-0-|
D|------------------5-|---5---4---4--4-4-5-4-0-|
|
E|---------------15---|-(15)-14-(14)-----------|
B|--------14----------|------------------------|
G|-16-----------------|------------------------|
D|--------------------|------------------------|
A|--------------------|------------------------|
D|--------------------|------------------------|


C#5
PM-------| ~~

E|----------------------|-------------------------|
B|----------------------|-------------------------|
G|--------------6s10-10-|--10s=12-12s14-14--14\---|
D|---4--4-4-4-4-x-----x-|---x------x-----x---x----|
A|---5--5-5-5-5-4s=8--8-|---8s=10-10s12-12--12\---|
D|----------------------|-------------------------|
|
| PM-------| ~~
E|----------------------|-------------------------|
B|----------------------|-------------------------|
G|--------------6s10-10-|-------6--6--6--6--------|
D|--------------x-----x-|-------x--x--x--x--------|
A|--------------4s=8--8-|-------4--4--4--4--------|
D|---0--0-0-0-0---------|---0---------------------|
|
E|-(14)-----------------|-(14)--------------------|
B|----------------------|-------------------------|
G|----------------------|-------------------------|
D|----------------------|-------------------------|
A|----------------------|-------------------------|
D|----------------------|-------------------------|


[Chorus]

Cmaj7 EbmaGbmaj7
3/4
Gtrs I, II

E|----------|----------|----------|---------------|
B|----------|----------|----------|---------------|
G|-4---4--4-|-4---4--4-|-4---4--4-|-7---10-(10)\--|
D|-2---2--2-|-2---2--2-|-2---2--2-|-5----8--(8)\--|
A|-3---3--3-|-3---3--3-|-3---3--3-|-6----9--(9)\--|
D|----------|----------|----------|---------------|


D5 Eb5 D5 A5 Ab5
4/4
Gtr I
PM---------------------------------------
3x
E|------------------|--------------------||-|
B|o-----------------|-------------------o||-|
G|------------------|--------------------||-|
D|------0-----1-----|--0------7-----6----||-|
A|o---0-----1-----0-|-------7-----6---6-o||-|
D|--0-----1-----0---|-----7-----6--------||-|
|
| Gtr II
| PM---------------------------------------
| 3x
E|------------------|--------------------||-|
B|o-----------------|-------------------o||-|
G|------------------|--------------------||-|
D|------------------|--------------------||-|
A|o-----------------|-------------------o||-|
D|--0-----1-----0---|-(0)-7-----6--------||-|


D5 Eb5 D5 A5 Ab5
---------------------------------|
E|-----------------|-------------------|-----||
B|-----------------|-------------------|-----||
G|-----------------|-------------------|-----||
D|-----0-----1-----|--0------7-----6\--|-----||
A|---0-----1-----0-|-------7-----6-----|-----||
D|-0-----1-----0---|-----7-----6-------|-----||
|
|-----------------------------|
E|-----------------|-------------------|-----||
B|-----------------|-------------------|-----||
G|-----------------|-------------------|-----||
D|-----------------|-------------------|-----||
A|-----------------|-------------------|-----||
D|-0-----1-----0---|-(0)-7-----6-------|-----||


[Verse]

B5 D5 E5 F#5 A#5 F#5
Gtr II
PM------------|
E|------------------|-----------------|
B|o-----------------|-----------------|
G|------------------|-----------------|
D|------------------|-----------------|
A|o-2-2-2-----------|---------1-1-----|
D|--------0-0-0-2-2-|-2-4-4-4-----4-4-|


G5 F5 C#5
Gtrs I, II

E|---------------------|-------------------||
B|---------------------|------------------o||
G|-----------/10-10-10-|-10-6-6-6-6-6-6-6--||
D|-------------x--x--x-|--x-x-x-x-x-x-x-x--||
A|------------/8--8--8-|--8-4-4-4-4-4-4-4-o||
D|-5-5-5-5-5-----------|-------------------||


B5 D5 E5 F#5 A#5 F#5 G5 F5 C#5
Gtr II
PM------------------------------------------|
E|-----------------|-------------------|---------------------|-------------------|
B|-----------------|-------------------|---------------------|-------------------|
G|-----------------|-------------------|-----------/10-10-10-|-10-6-6-6-6-6-6-6--|
D|-----------------|-------------------|-------------x--x--x-|--x-x-x-x-x-x-x-x--|
A|-2-2-2-----------|-----------1-1-----|------------/8--8--8-|--8-4-4-4-4-4-4-4--|
D|-------0-0-0-2-2-|-2-4-4-4-------4-4-|-5-5-5-5-5-----------|-------------------|
|
| Gtr I
| PM------------------------------------------|
E|-----------------|----------------|---------------------|-------------------|
B|-----------------|----------------|---------------------|-------------------|
G|-4-4-4-6-6-6-----|--------3-3-----|-----------/10-10-10-|-10-6-6-6-6-6-6-6--|
D|-------------5-5-|5-4-4-4---------|-------------x--x--x-|--x-x-x-x-x-x-x-x--|
A|-----------------|------------4-4-|-5-5-5-5-5--/8--8--8-|--8-4-4-4-4-4-4-4--|
D|-----------------|----------------|---------------------|-------------------|


B5 D5 E5 F#5 A#5 F#5
PM---------------------------------
E|-----------------|-----------------|
B|-----------------|-----------------|
G|-----------------|-----------------|
D|-----------------|-----------------|
A|-2-2-2-----------|---------1-1-----|
D|-------0-0-0-2-2-|-2-4-4-4-----4-4-|
|
| PM---------------------------------
E|-----------------|-----------------|
B|-----------------|-----------------|
G|-4-4-4-6-6-6-----|---------3-3-----|
D|-------------5-5-|-5-4-4-4---------|
A|-----------------|-------------4-4-|
D|-----------------|-----------------|


G5 F5 C#5
---------|
E|---------------------|-------------------------||
B|---------------------|-------------------------||
G|-----------/10-10-10-|-10--6--6--6--6-6--6--6--||
D|-------------x--x--x-|--x--x--x--x--x-x--x--x--||
A|------------/8--8--8-|--8--4--4--4--4-4--4--4--||
D|-5-5-5-5-5-----------|-------------------------||
|
|---------| ~~
E|---------------------|-------------------------||
B|---------------------|-------------------------||
G|-----------/10-10-10-|-10s12-12s14-14---14\----||
D|-------------x--x--x-|--x-----x-----x----x-----||
A|-5-5-5-5-5--/8--8--8-|--8s10-10s12-12---12\----||
D|---------------------|-------------------------||


[Chorus]

Cmaj7 EbmaGbmaj7
3/4
Gtrs I, II

E|----------|----------|----------|---------------|
B|----------|----------|----------|---------------|
G|-4---4--4-|-4---4--4-|-4---4--4-|-7---10-(10)\--|
D|-2---2--2-|-2---2--2-|-2---2--2-|-5----8--(8)\--|
A|-3---3--3-|-3---3--3-|-3---3--3-|-6----9--(9)\--|
D|----------|----------|----------|---------------|


D5 Eb5 D5 A5 Ab5
4/4
Gtr I
PM----------------------------------
E|------------------|-------------------|
B|o-----------------|-------------------|
G|------------------|-------------------|
D|------0-----1-----|--0------7-----6---|
A|o---0-----1-----0-|-------7-----6---6-|
D|--0-----1-----0---|-----7-----6-------|
|
| Gtr II
| PM---------------------------------
E|------------------|-------------------|
B|o-----------------|-------------------|
G|------------------|-------------------|
D|------------------|-------------------|
A|o-----------------|-------------------|
D|--0-----1-----0---|-(0)-7-----6-------|


D5 Eb5 D5 A5 Ab5
-----------------------------------|
E|-----------------|---------------------||
B|-----------------|--------------------o||
G|-----------------|---------------------||
D|-----0-----1-----|--0------7-----6-----||
A|---0-----1-----0-|-------7-----6---6--o||
D|-0-----1-----0---|-----7-----6---------||
|
|-----------------------------|
E|-----------------|---------------------||
B|-----------------|--------------------o||
G|-----------------|---------------------||
D|-----------------|---------------------||
A|-----------------|--------------------o||
D|-0-----1-----0---|-(0)-7-----6---------||


[Verse]

Faster Q=162
D5 Gb5 F5 Cb5 BbC#
3/4
Gtrs I, II
PM----| PM----| PM----| PM----|

E|------------------|----------------|-----------------|------------------||
B|o-----------------|----------------|-----------------|-----------------o||
G|--8-(8)s7---------|8-(8)s7---------|-----------------|------------------||
D|--x---------------|x---------------|-----------------|-4-(4)s3-3-3-3-3--||
A|o-6-(6)s5---------|6-(6)s5-------1-|-4-(4)s3-3-3-3-3-|-2-(2)s1-4-4-4-4-o||
D|----------0-0-0-0-|--------0-3-0---|-4-(4)s3-3-3-3-3-|------------------||


EbD5 EbD5 B5 C#5 B5 Bb5
PM----| PM----| PM----| PM
E|--------------|-------------|-----------------|------------------||
B|o-------------|-------------|-----------------|-------------5h6-o||
G|--------------|-------------|-----------------|------------------||
D|--------------|-------------|-4-(4)s6-6-6-6-6-|-4-(4)s3-3--------||
A|o-1p0---------|-1p0-------1-|-2-(2)s4-4-4-4-4-|-2-(2)s1---0-----o||
D|--1p0-0-0-0-0-|-1p0-0-3-5---|-----------------|------------------||


[Chorus]

$
$$
Bbmaj7 A5 BbmaA5 D5 F5
Gtrs I, III

E|------------|-------------|--------------|---------------|
B|------------|-------------|--------------|---------------|
G|------------|-------------|--------------|---------------|
D|-7--7-7-7-7-|--7---7--7\--|--------------|---------------|
A|-x--x-x-x-x-|--x---x--x---|--------------|---------------|
D|-8--8-8-8-8-|--7---8--7\--|--0---0-0-0-0-|--3---3-3-3-3/-|
|
| Gtr II
| TP TP TP TP
E|------------|-------------|--------------|---------------|
B|------------|-10--10------|-11--11-------|---------------|
G|-7--7-------|-------------|--------------|-12--12--------|
D|------------|-------------|--------------|---------------|
A|------------|-------------|--------------|---------------|
D|------------|-------------|--------------|---------------|


Bbmaj7 A5 BbmaA5 D5 F5

E|--------------|-------------|--------------|---------------|
B|--------------|-------------|--------------|---------------|
G|--------------|-------------|--------------|---------------|
D|--7---7-7-7-7-|--7---7--7\--|--------------|---------------|
A|--x---x-x-x-x-|--x---x--x---|--------------|---------------|
D|--8---8-8-8-8-|--7---8--7\--|--0---0-0-0-0-|--3--3-3--3-3/-|
|
| TP TP TP TP TP
E|--------------|-------------|--------------|---------------|
B|-10--10-------|-------------|-10--10-------|---------10----|
G|--------------|-10--10------|--------------|-12------------|
D|--------------|-------------|--------------|---------------|
A|--------------|-------------|--------------|---------------|
D|--------------|-------------|--------------|---------------|


Bb A Bb A Dm
E|------------|-------------|--------------|------------|
B|------------|-------------|--------------|------------|
G|------------|-------------|--------------|------------|
D|------------|-------------|--------------|------------|
A|-5----5-5-5-|--4---5--4\--|--------------|------------|
D|-8----8-8-8-|--7---8--7\--|--0---0-0-0-0-|--3---2--0--|
|
| TP TP TP TP
E|------------|-------------|--------------|------------|
B|------------|-10--10------|-11--11-------|------------|
G|-7--7-------|-------------|--------------|-12--12-----|
D|------------|-------------|--------------|------------|
A|------------|-------------|--------------|------------|
D|------------|-------------|--------------|------------|


D.S.S. al Coda
D.S.S. al Coda
Bb A Bb A Dm
E|--------------|-------------|--------------|------------||
B|--------------|-------------|--------------|------------||
G|--------------|-------------|--------------|------------||
D|--------------|-------------|--------------|------------||
A|--5-----5-5-5-|--4---5--4\--|--------------|------------||
D|--8-----8-8-8-|--7---8--7\--|--0---0-0-0-0-|--3--2---0--||
|
| TP TP TP TP TP
E|--------------|-------------|--------------|------------||
B|-10--10-------|-------------|-10--10-------|--------10--||
G|--------------|-10--10------|--------------|-12---------||
D|--------------|-------------|--------------|------------||
A|--------------|-------------|--------------|------------||
D|--------------|-------------|--------------|------------||


[Interlude]

Eb5D5 Eb5 D5 Eb5 D5 Eb5 D5
PM----| PM----| PM----| PM----|
E|--------------|----------------|----------------|----------------|
B|--------------|----------------|----------------|----------------|
G|--------------|----------------|----------------|----------------|
D|--------------|----------------|----------------|----------------|
A|--------------|----------------|----------------|----------------|
D|--1p0-0-0-0-0-|---1p=0-0-0-0-0-|---1p=0-0-0-0-0-|---1p=0-0-0-0-0-|
|
| >
E|--------------|----------------|----------------|----------------|
B|--------------|----------------|----------------|----------------|
G|--------------|----------------|----------------|----------------|
D|-12-----------|-(12)-----------|-(12)-----------|-(12)-----------|
A|--------------|----------------|----------------|----------------|
D|--------------|----------------|----------------|----------------|

EbD5 EbD5 EbD5 EbD5
2/4
PM----| PM----| PM----| PM|
E|--------------|--------------||-||---------------||-|----------||
B|o-------------|-------------o||-||o-------------o||-|----------||
G|--------------|--------------||-||---------------||-|----------||
D|--------------|--------------||-||---------------||-|----------||
A|o-------------|-------------o||-||o-1-0---------o||-|-1--0-----||
D|--1p0-0-0-0-0-|-1p0-0-0-0-0--||-||--1p0-0-0-0-0--||-|-1p=0-0-0-||
|
| <
E|--------------|--------------||-||---------------||-|----------||
B|o-------------|-------------o||-||o-------------o||-|----------||
G|--------------|--------------||-||---------------||-|---12-----||
D|--------------|--------------||-||---------------||-|----------||
A|o-------------|-------------o||-||o-------------o||-|----------||
D|--------------|--------------||-||---------------||-|----------||


[Solo]

Eb5 D5 Eb5D5
3/4
PM--------------------| PM--------------------------|

E|------------------|--------------|-------------------|--------------------|
B|------------------|--------------|-------------------|--------------------|
G|------------------|--------------|-------------------|--------------------|
D|------------------|--------------|-------------------|--------------------|
A|------------------|--------------|-------------------|--------------------|
D|-1p====0--0-0-0-0-|--0-0-0-0-0-0-|--1p=0--0--0--0--0-|--0--0--0--0--0--0--|
|
E|------------------|--------------|-------------------|--------------------|
B|-13b15====(13)----|-13-----------|-13-13-13-13-13-13-|-13-13-13-13-13-13r-|
G|------------------|--------------|-------------------|--------------------|
D|------------------|--------------|-------------------|--------------------|
A|------------------|--------------|-------------------|--------------------|
D|------------------|--------------|-------------------|--------------------|


Eb5 D5
PM---------------------------------|
E|------------------------------|--------------------|
B|------------------------------|--------------------|
G|------------------------------|--------------------|
D|------------------------------|--------------------|
A|------------------------------|--------------------|
D|--1p======0---0-------0--0--0-|--0--0--0--0---0--0-|
|
E|------------------------------|--------------------|
B|-13pb15==13r-13pb14==13-13-13r|=13-13-13-13-(13)---|
G|------------------------------|------------------0-|
D|------------------------------|--------------------|
A|------------------------------|--------------------|
D|------------------------------|--------------------|


D5/D5 D5/G#
E|-------------------|----------------|
B|-------------------|----------------|
G|-------------------|----------------|
D|--7-----7--7--7--7-|--7--7-7---7----|
A|--5-----5--5--5--5-|--5--5-5---5----|
D|--5-----5--5--5--5-|--6--6-6---6--0-|
|
| ~~~~~~~~~~~~
E|-------------------|----------------|
B|-10h11p10----10h11-|-10------(10)---|
G|----------12-------|----------------|
D|-------------------|----------------|
A|-------------------|----------------|
D|-------------------|----------------|

Eb5 D5 Eb5 D5
PM-------------------------| PM---------------------|
E|---------------|--------------------|--------------------|----------------|
B|---------------|--------------------|--------------------|----------------|
G|---------------|--------------------|--------------------|----------------|
D|---------------|--------------------|--------------------|----------------|
A|---------------|--------------------|--------------------|----------------|
D|1p===0-0-0-0-0-|---0------0-0-0-0-0-|---1p=====0-0-0-0-0-|---0--0-0-0-0-0-|
|
E|---------------|--------------------|--------------------|----------------|
B|-13b14=========|=(13)b15============|=(13)b19============|=(13)-----------|
G|---------------|--------------------|--------------------|----------------|
D|---------------|--------------------|--------------------|----------------|
A|---------------|--------------------|--------------------|----------------|
D|------------------|-----------------|--------------------|----------------|


Eb5 D5 D5/G D5/G#
PM---------------------|
E|----------------|----------------|------------|------------|
B|----------------|----------------|------------|------------|
G|----------------|----------------|------------|------------|
D|----------------|----------------|-7--7-7-7-7-|-7--7-7-7---|
A|----------------|----------------|-5--5-5-5-5-|-5--5-5-5---|
D|---1p=0-0-0-0-0-|---0--0-0-0-0-0-|-5--5-5-5-5-|-6--6-6-6-0-|
|
E|----------------|----------------|------------|------------|
B|-(13)r==========|=(13)-----------|------------|------------|
G|----------------|----------------|------------|------------|
D|----------------|----------------|-8----7---7-|-8--7---7---|
A|----------------|----------------|------------|------------|
D|----------------|----------------|------------|------------|


EbD5 EbD5
PM-------------------------| PM-----------------------------|
E|-----------------|----------------|---------------------|----------------|
B|-----------------|----------------|---------------------|----------------|
G|-----------------|----------------|---------------------|----------------|
D|-----------------|----------------|---------------------|----------------|
A|-----------------|----------------|---------------------|----------------|
D|-1p0-0---0-0--0--|-0-0-0-0--0---0-|-1p0-0--0---0-----0--|-0-0-0-0--0---0-|
|
| ~
E|-----------------|----------------|---------------------|----------------|
B|-----------------|----------------|---------------------|----------------|
G|-----------------|----------------|-------[6]-(6)b7-(6)-|----------------|
D|-7---7b8-----(7)-|-7-------(7)\---|-7-----(7)-(7)b8-(7)-|-7-------(7)\---|
A|-----------------|----------------|---------------------|----------------|
D|-----------------|----------------|---------------------|----------------|


EbD5
PM------------------------------|
E|----------------------|----------------|
B|----------------------|----------------|
G|----------------------|----------------|
D|----------------------|----------------|
A|----------------------|----------------|
D|-1p0-0--0---0------0--|-0-0-0-0--0---0-|
|
| ~
E|----------------------|----------------|
B|----------------------|----------------|
G|-------[9]-(9)b10-(9)-|----------------|
D|-7-----(7)-(7)b8--(7)-|-7-------(7)\---|
A|----------------------|----------------|
D|----------------------|----------------|


D5/G D5/G#
E|--------------------------------------|----------------------------------|
B|--------------------------------------|----------------------------------|
G|--------------------------------------|----------------------------------|
D|--7-------------7----7-----7--------7-|--7--------7----7-----7-----------|
A|--5-------------5----5-----5--------5-|--5--------5----5-----5-----------|
D|--5-------------5----5-----5--------5-|--6--------6----6-----6----0------|
|
E|-13b15r(13)p10h13p10------10h13p10----|----------------------------------|
B|-----------------------13----------13-|-13p11h13-11p10------10h11---10---|
G|--------------------------------------|------------------12--------------|
D|--------------------------------------|----------------------------------|
A|--------------------------------------|----------------------------------|
D|--------------------------------------|----------------------------------|


Eb5 D5
PM-----------------------------------------------|
E|-------------------------------|-------------------------------|
B|-------------------------------|-------------------------------|
G|-------------------------------|-------------------------------|
D|-------------------------------|-------------------------------|
A|-------------------------------|-------------------------------|
D|--1p====0--0--------0--0-----0-|--0--------0--0-----0-----0--0-|
|
E|-------------------------------|-------------------------------|
B|-10h11p10-10h11p10----10h11p10-|-10h11p10----10h11p10-10h11p10-|
G|-------------------12----------|----------12-------------------|
D|-------------------------------|-------------------------------|
A|-------------------------------|-------------------------------|
D|-------------------------------|-------------------------------|


Eb5 D5
PM--------------------------------------------|
E|-------------------------------|--------------------------------|
B|-------------------------------|--------------------------------|
G|-------------------------------|--------------------------------|
D|-------------------------------|--------------------------------|
A|-------------------------------|--------------------------------|
D|--1p=======0--0-----0--0-----0-|--0--------0--0-----0--0-----0--|
|
E|-------------------------------|--------------------------------|
B|-10h11p10----10h11p10-10h11p10-|-10h11p10----10h11p10-10h11p10--|
G|----------12-------------------|----------12--------------------|
D|-------------------------------|--------------------------------|
A|-------------------------------|--------------------------------|
D|-------------------------------|--------------------------------|


Eb5 D5
PM-------------------------------|
E|-----------------------|---------------------|
B|-----------------------|---------------------|
G|-----------------------|---------------------|
D|-----------------------|---------------------|
A|-----------------------|---------------------|
D|--1p====0-0----0-0---0-|-0---0---0---0-0---0-|
|
E|-----------------------|---------------------|
B|-10h11p10-8h10p8-6h8p6-|-5h6p5h6-6h8p6-5h6p5-|
G|-----------------------|---------------------|
D|-----------------------|---------------------|
A|-----------------------|---------------------|
D|-----------------------|---------------------|


D5/G D5/G#
E|---------------------|--------------------------|
B|---------------------|--------------------------|
G|---------------------|--------------------------|
D|-7-----7---7---7---7-|---7-------7---7--7-------|
A|-5-----5---5---5---5-|---5-------5---5--5-------|
D|-5-----5---5---5---5-|---6-------6---6--6---0---|
|
E|---------------------|--------------------------|
B|---------------------|--------------------------|
G|---------------------|--------------------------|
D|-7h8p7-5h7p5-7h8-7h8-|-7h8-7h8-7h8-7h8-(8)\-----|
A|---------------------|--------------------------|
D|---------------------|--------------------------|


D5/G D5/G#
E|----------------------------|------------------------|
B|----------------------------|------------------------|
G|----------------------------|------------------------|
D|--7--------7---7----7-----7-|-7------7----7--7-------|
A|--5--------5---5----5-----5-|-5------5----5--5-------|
D|--5--------5---5----5-----5-|-6------6----6--6-----0-|
|
E|----------------------------|------------------------|
B|----------------------------|------------------------|
G|----------------------------|-9p7h9-10p8h10-12p10-10-|
D|-10p8p7h8h10p8p7h8-12p10h12-|------------------------|
A|----------------------------|------------------------|
D|----------------------------|------------------------|


D5/G D5/G#
PM

E|-------------------------|-------------------------||
B|-------------------------|-------------------------||
G|-------------------------|-------------------------||
D|--7----------------------|-------------------------||
A|--5--------5-----5--5----|--5-----5-----5--5-------||
D|--5--------5-----5--5--0-|--5-----5-----6--6-/17\--||
|
E|-------------------------|-------------------------||
B|----------------------10-|-13p10h13p10-12-10-------||
G|-12p10h12-12p10h12-12----|---------------------0---||
D|-------------------------|-------------------------||
A|-------------------------|-------------------------||
D|-------------------------|-------------------------||


[Verse]

D5
PM-----------| PM----|
|-------------------------|------------------------|
|-------------------------|------------------------|
|--8-(8)s7----------------|---8------(8)s7---------|
|--x----------------------|---x--------------------|
|--6-(6)s5----------------|---6------(6)s5-------1-|
|----------0-0---0------0-|----------------0-3-0---|
|
E|-------------------------|------------------------|
B|-14-----------(14)b15====|=(14)b16================|
G|-------------------------|------------------------|
D|-------------------------|------------------------|
A|-------------------------|------------------------|
D|-------------------------|------------------------|


Gb5 F5 Cb5 BbC#
PM-----------| PM----|
E|-------------------------------|-----------------|
B|-------------------------------|-----------------|
G|-------------------------------|-----------------|
D|-------------------------------|-4-(4)s3-3-3-3-3-|
A|---4--(4)s3-3-3---3--------3---|-2-(2)s1-4-4-4-4-|
D|---4--(4)s3-3-3---3--------3---|-----------------|
|
E|-------------------------------|-----------------|
B|-(14)-----------(14)b17==(14)r-|-----------------|
G|-------------------------------|-----------------|
D|-------------------------------|-----------------|
A|-------------------------------|-----------------|
D|-------------------------------|-----------------|


D5 Gb5 F5 Cb5 BbC#
Gtrs I, II
PM----| PM----| PM----| PM----|

E|-----------------|-----------------|-----------------|-----------------|
B|-----------------|-----------------|-----------------|-----------------|
G|-8-(8)s7---------|-8-(8)s7---------|-----------------|-----------------|
D|-x---------------|-x---------------|-----------------|-4-(4)s3-3-3-3-3-|
A|-6-(6)s5---------|-6-(6)s5-------1-|-4-(4)s3-3-3-3-3-|-2-(2)s1-4-4-4-4-|
D|---------0-0-0-0-|---------0-3-0---|-4-(4)s3-3-3-3-3-|-----------------|
D.S.
EbD5 EbD5 B5 C#5 B5 Bb5
PM----| PM----| PM----| PM
E|--------------|-------------|-----------------|------------------||
B|o-------------|-------------|-----------------|-------------5h6-o||
G|--------------|-------------|-----------------|------------------||
D|--------------|-------------|-4-(4)s6-6-6-6-6-|-4-(4)s3-3--------||
A|o-1p0---------|-1p0-------1-|-2-(2)s4-4-4-4-4-|-2-(2)s1---0-----o||
D|--1p0-0-0-0-0-|-1p0-0-3-5---|-----------------|------------------||


[Out-Chorus]

&
D5 Bb6 Bbsus2
Gtrs I, III

E|------------------|------------|----------------|------------------|
B|o-----------------|------------|----------------|------------------|
G|------------------|------------|----------------|------------------|
D|------------------|------------|----------------|-10--10-10-10-10--|
A|o-12--12-12-12-12-|--7---8--7--|-10--10-10-10-8-|--8---8--8--8--8--|
D|---0---0--0--0--0-|--0---0--0--|--8---8--8--8-8-|--8---8--8--8--8--|
|
| Gtr II
| TP TP TP TP
E|------------------|------------|----------------|------------------|
B|o-----------------|-10--10-----|-11--11---------|------------------|
G|---7---7----------|------------|----------------|-12--12-----------|
D|------------------|------------|----------------|------------------|
A|o-----------------|------------|----------------|------------------|
D|------------------|------------|----------------|------------------|

Am A5 G5 Dm A

E|----------------|--------------|--------------|------------|
B|----------------|--------------|--------------|------------|
G|----------------|------------7-|--7---7-7-7-7-|--7--6---6--|
D|-10--10-10-10-7-|--7---------x-|--5---5-5-5-5-|--x--x---x--|
A|--7---7--7--7-7-|--7---7-7-7-5-|--5---5-5-5-5-|--8--7---8--|
D|--7---7--7--7-7-|--7---7-7-7---|--5---5-5-5-5-|------------|
|
| TP TP TP TP TP
E|----------------|--------------|--------------|------------|
B|-10--10---------|--------------|-10--10-------|--------10--|
G|----------------|-10--10-------|--------------|-12---------|
D|----------------|--------------|--------------|------------|
A|----------------|--------------|--------------|------------|
D|----------------|--------------|--------------|------------|


D5 Bb

E|-----------------|------------|--------------|-------------|
B|-----------------|------------|--------------|-------------|
G|-----------------|------------|--------------|-------------|
D|-----------------|------------|--8---8-8-8-8-|--8---7--8\--|
A|-12--12-12-12-12-|--7---8--7--|--x---x-x-x-x-|--x---x--x---|
D|--0---0--0--0--0-|--0---0--0--|--8---8-8-8-8-|--8---8--8\--|
|
| TP TP TP TP
E|-----------------|------------|--------------|-------------|
B|-----------------|-10--10-----|-11--11-------|-------------|
G|--7---7----------|------------|--------------|-12--12------|
D|-----------------|------------|--------------|-------------|
A|-----------------|------------|--------------|-------------|
D|-----------------|------------|--------------|-------------|


G5 A5 G5

E|--------------|------------|--------------|-----------------------------||
B|--------------|------------|--------------|----------------------------o||
G|--------------|------------|--9---9-9-9-9-|--9-(9)s12-12-(12)s14-14-14--||
D|--------------|------------|--x---x-x-x-x-|--x-(x)-----x--(x)-----x--x--||
A|--5---5-5-5-5-|------------|--7---7-7-7-7-|--7-(7)s10-10-(10)s12-12-12-o||
D|--5---5-5-5-5-|--3---2--0--|--------------|-----------------------------||
|
| TP TP TP TP TP
E|--------------|------------|--------------|-----------------------------||
B|-10--10-------|------------|-10--10-------|----------------------10----o||
G|--------------|-10--10-----|--------------|-12--------------------------||
D|--------------|------------|--------------|-----------------------------||
A|--------------|------------|--------------|----------------------------o||
D|--------------|------------|--------------|-----------------------------||


[Outro]

D5 Bb6 Bbsus2
Gtr I

E|-----------------|------------|----------------|-----------------|
B|-----------------|------------|----------------|-----------------|
G|-----------------|------------|----------------|-----------------|
D|-----------------|------------|----------------|-10--10-10-10-10-|
A|-12--12-12-12-12-|--7---8--7--|-10--10-10-10-8-|--8---8--8--8--8-|
D|--0---0--0--0--0-|--0---0--0--|--8---8--8--8-8-|--8---8--8--8--8-|
|
| Gtr II
| TP TP TP TP
E|-----------------|------------|----------------|-----------------|
B|-----------------|-10--10-----|-11--11---------|-----------------|
G|--7---7----------|------------|----------------|-12--12----------|
D|-----------------|------------|----------------|-----------------|
A|-----------------|------------|----------------|-----------------|
D|-----------------|------------|----------------|-----------------|
|
| Gtr VI
E|-----------------|------------|----------------|-----------------|
B|-----------------|-10---------|-11-------------|-----------------|
G|--7--------------|------------|----------------|-12--------------|
D|-----------------|------------|----------------|-----------------|
A|-----------------|------------|----------------|-----------------|
D|-----------------|------------|----------------|-----------------|


Am A5 G5 Dm A

E|----------------|--------------|--------------|------------|
B|----------------|--------------|--------------|------------|
G|----------------|------------7-|--7---7-7-7-7-|--7--6---6--|
D|-10--10-10-10-7-|--7---------x-|--5---5-5-5-5-|--x--x---x--|
A|--7---7--7--7-7-|--7---7-7-7-5-|--5---5-5-5-5-|--8--7---8--|
D|--7---7--7--7-7-|--7---7-7-7---|--5---5-5-5-5-|------------|
|
| TP TP TP TP TP
E|----------------|--------------|--------------|------------|
B|-10--10---------|--------------|-10--10-------|--------10--|
G|----------------|-10--10-------|--------------|-12---------|
D|----------------|--------------|--------------|------------|
A|----------------|--------------|--------------|------------|
D|----------------|--------------|--------------|------------|
|
E|----------------|--------------|--------------|------------|
B|-10-------------|--------------|-10-----------|------------|
G|----------------|-10-----------|--------------|-12---------|
D|----------------|--------------|--------------|------------|
A|----------------|--------------|--------------|------------|
D|----------------|--------------|--------------|------------|


D5 Bb

E|-----------------|------------|--------------|-------------|
B|-----------------|------------|--------------|-------------|
G|-----------------|------------|--------------|-------------|
D|-----------------|------------|--8---8-8-8-8-|--8---7--8\--|
A|-12--12-12-12-12-|--7---8--7--|--x---x-x-x-x-|--x---x--x---|
D|--0---0--0--0--0-|--0---0--0--|--8---8-8-8-8-|--8---8--8\--|
|
| TP TP TP TP
E|-----------------|------------|--------------|-------------|
B|-----------------|-10--10-----|-11--11-------|-------------|
G|--7---7----------|------------|--------------|-12--12------|
D|-----------------|------------|--------------|-------------|
A|-----------------|------------|--------------|-------------|
D|-----------------|------------|--------------|-------------|
|
E|-----------------|------------|--------------|-------------|
B|-----------------|-10---------|-11-----------|-------------|
G|--7--------------|------------|--------------|-12----------|
D|-----------------|------------|--------------|-------------|
A|-----------------|------------|--------------|-------------|
D|-----------------|------------|--------------|-------------|


G5 A5 G5
E|--------------|------------|--------------|----------------------------|
B|--------------|------------|--------------|----------------------------|
G|--------------|------------|--9---9-9-9-9-|--9-(9)s12-12-(12)s14-14-14-|
D|--------------|------------|--x---x-x-x-x-|--x-(x)-----x--(x)-----x--x-|
A|--5---5-5-5-5-|------------|--7---7-7-7-7-|--7-(7)s10-10-(10)s12-12-12-|
D|--5---5-5-5-5-|--3---2--0--|--------------|----------------------------|
|
| TP TP TP TP
E|--------------|------------|--------------|----------------------------|
B|-10--10-------|------------|-10--10-------|----------------------10----|
G|--------------|-10--10-----|--------------|-12-------------------------|
D|--------------|------------|--------------|----------------------------|
A|--------------|------------|--------------|----------------------------|
D|--------------|------------|--------------|----------------------------|
|
E|--------------|------------|--------------|----------------------------|
B|-10-----------|------------|-10-----------|----------------------------|
G|--------------|-10---------|--------------|-12-------------------------|
D|--------------|------------|--------------|----------------------------|
A|--------------|------------|--------------|----------------------------|
D|--------------|------------|--------------|----------------------------|


D5
E|-----------|-----------|--------*|
B|-----------|-----------|--------*|
G|-----------|-----------|--------*|
D|-----------|-----------|--------*|
A|-----------|-----------|--------*|
D|---0-------|--(0)------|-(0)----*|
|
| >
E|-----------|-----------|--------*|
B|-(10)------|-(10)------|--------*|
G|-----------|-----------|--------*|
D|-----------|-----------|--------*|
A|-----------|-----------|--------*|
D|-----------|-----------|--------*|


Tablature Legend
----------------
h - hammer-on
p - pull-off
b - bend
pb - pre-bend
r - bend release (if no number after the r, then release immediately)
/\ - slide into or out of (from/to "nowhere")
s - legato slide
S - shift slide
- natural harmonic
[n] - artificial harmonic
n(n) - tapped harmonic
~ - vibrato
tr - trill
T - tap
TP - trem. picking
PM - palm muting
\n/ - tremolo bar dip; n = amount to dip
\n - tremolo bar down
n/ - tremolo bar up
/n\ - tremolo bar inverted dip
= - hold bend; also acts as connecting device for hammers/pulls
<> - volume swell (louder/softer)
x - on rhythm slash represents muted slash
o - on rhythm slash represents single note slash

Misc Legend
-----------
| - bar
|| - double bar
||o - repeat start
o|| - repeat end
*| - double bar (ending)
: - bar (freetime)
$ - Segno
& - Coda
Tempo markers - = BPM(8/16=s8/s16), where s8 = swing 8ths, s16 = swing 16ths
Tunning: Standard (E A D G B e)
#----------------------------------PLEASE NOTE---------------------------------#
#This file is the author's own work and represents their interpretation of the #
#song. You may only use this file for private study, scholarship, or research. #
#------------------------------------------------------------------------------##

VERMILION
As recorded by Slipknot
(From the 2004 Album VOL. 3 (THE SUBLIMINAL VERSES))

Words and Music by Slipknot
Transcribed by Travis Lausch

Not too sure about the end of that solo.

Gtr I (B F# B E G# C#) - 'Intro Effects'
Gtr II (B F# B E G# C#) - 'Guitar 1'
Gtr III (B F# B E G# C#) - 'Guitar 2'
Gtr IV (B F# B E G# C#) - 'Harmony/Lead Gtr.'

Intro
Q=138
4/4
Gtrs II, III
W W
|--------------------|--------------------|
|--------------------|--------------------|
|--------------------|--------------------|
|--------------------|--------------------|
|--------------------|--------------------|
|--------------------|--------------------|
|
| Gtr I
|
| H. +H. +H. +H.
|-------------|---------------|---------------|---------------|
|-------------|---------------|---------------|---------------|
|-7-----------|-(7)-----------|-(7)-----------|-(7)-----------|
|-------------|---------------|---------------|---------------|
|-------------|---------------|---------------|---------------|
|-------------|---------------|---------------|---------------|


Gtrs II, III
PM----| PM----| PM----|
E E E E E E E E E E E E E E E E E E
|-------------|-------------|-------------|
|-------------|-------------|-------------|
|-------------|-------------|-------------|
|-------------|-------------|-------------|
|-------------|-------------|-------------|
|-1p0-0-0-0-0-|-1p0-0-0-0-0-|-1p0-0-0-0-0-|


2/4 3/4
PM----| PM----| PM----| PM|
E E E E E E E E E E E E E E E E E E E E E E
|-------------|-------------|-------------|---------|-
|-------------|-------------|-------------|---------|-
|-------------|-------------|-------------|---------|-
|-------------|-------------|-------------|---------|-
|-------------|-------------|-------------|---------|-
|-1p0-0-0-0-0-|-1p0-0-0-0-0-|-1p0-0-0-0-0-|-1p0-0-0-|-


Guitar Solo
3/4
Gtr IV
TP TP TP TP
H +Q +H. +H. E E E E E E
|---------------------|----------------|---------------|--------------------|
|-13b15========(13)---|-(13)-----------|-(13)----------|-13-13-13-13-13-13r-|
|---------------------|----------------|---------------|--------------------|
|---------------------|----------------|---------------|--------------------|
|---------------------|----------------|---------------|--------------------|
|---------------------|----------------|---------------|--------------------|
|
| Gtrs II, III
| PM------------------------| PM-----------------------|
| E E E E E E E E E E E E E E E E E E E E E E E E
|---------------------|----------------|---------------|--------------------|
|---------------------|----------------|---------------|--------------------|
|---------------------|----------------|---------------|--------------------|
|---------------------|----------------|---------------|--------------------|
|---------------------|----------------|---------------|--------------------|
|--1p====0-0-0---0--0-|---0--0-0-0-0-0-|---1p0-0-0-0-0-|--0--0--0--0--0--0--|


E E E E E E
|-----------------------------------------------|
|-13pb14.5-13pb14.5-13pb14-13pb14-13pb14-13pb14-|
|-----------------------------------------------|
|-----------------------------------------------|
|-----------------------------------------------|
|-----------------------------------------------|
|
| PM--------------------------
| E E E E E E
|-----------------------------------------------|
|-----------------------------------------------|
|-----------------------------------------------|
|-----------------------------------------------|
|-----------------------------------------------|
|--1p=======0--------0------0------0------0-----|


E E E E E E E E E E E E Q. Q.
|-------------------------------|-------------------|-------------|
|-13pb13.5-13pb13.5-13-13-13-13-|-10h11p10----10S11-|-10----10----|
|-------------------------------|----------12-------|-------------|
|-------------------------------|-------------------|-------------|
|-------------------------------|-------------------|-------------|
|-------------------------------|-------------------|-------------|
|
|----------------------------|
| E E E E E E H. Q. Q.
|-------------------------------|-------------------|-------------|
|-------------------------------|-------------------|-------------|
|-------------------------------|-------------------|-------------|
|-------------------------------|--5----------------|--6-----6----|
|-------------------------------|--5----------------|--5-----5----|
|--0--------0--------0--0--0--0-|--5----------------|--6-----6----|


H. +H. +H. +H.
|-----------------|----------------|---------------|----------------|
|-----------------|----------------|---------------|----------------|
|-12b17-----------|-(12)-----------|-(12)----------|-(12)-----------|
|-----------------|----------------|---------------|----------------|
|-----------------|----------------|---------------|----------------|
|-----------------|----------------|---------------|----------------|
|
| PM---------------------| PM---------------------|
| E E E E E E E E E E E E E E E E E E E E E E E E
|-----------------|----------------|---------------|----------------|
|-----------------|----------------|---------------|----------------|
|-----------------|----------------|---------------|----------------|
|-----------------|----------------|---------------|----------------|
|-----------------|----------------|---------------|----------------|
|--1p===0-0-0-0-0-|---0--0-0-0-0-0-|---1p0-0-0-0-0-|---0--0-0-0-0-0-|


TP TP
+H. +H. S S E Q Q S S E S S E S S E
|---------------|-----------------|--------------|---------------------|
|---------------|-----------------|--------------|---------------------|
|-(12)----------|-(12)\-----------|--------------|---------------------|
|---------------|-----------------|-7--8-7-7--7--|-7--8-7-7-8-7--7-8-7-|
|---------------|-----------------|--------------|---------------------|
|---------------|-----------------|--------------|---------------------|
|
| PM----------------------|
| E E E E E E E E E E E E H. Q. Q.
|---------------|-----------------|--------------|---------------------|
|---------------|-----------------|--------------|---------------------|
|---------------|-----------------|--------------|---------------------|
|---------------|-----------------|-5------------|-6----------6--------|
|---------------|-----------------|-5------------|-5----------5--------|
|---1p0-0-0-0-0-|---0---0-0-0-0-0-|-5------------|-6----------6--------|


~~ ~~
H +Q H. H +Q H.
|-------------------|--------------|-------------------|--------------|
|-------------------|--------------|-------------------|--------------|
|-------------------|--------------|-------------------|--------------|
|-[7]b8-------(7)---|-7------------|-[7]b8-------(7)---|-7------------|
|-------------------|--------------|-------------------|--------------|
|-------------------|--------------|-------------------|--------------|
|
| PM---------------------| PM---------------------|
| E E E E E E E E E E E E E E E E E E E E E E E E
|-------------------|--------------|-------------------|--------------|
|-------------------|--------------|-------------------|--------------|
|-------------------|--------------|-------------------|--------------|
|-------------------|--------------|-------------------|--------------|
|-------------------|--------------|-------------------|--------------|
|--1p===0-0-0--0--0-|-0--0-0-0-0-0-|--1p===0-0-0--0--0-|-0--0-0-0-0-0-|


~~
H +Q H.
|-------------------|--------------|
|-------------------|--------------|
|-------------------|--------------|
|-[7]b8-------(7)---|-7------------|
|-------------------|--------------|
|-------------------|--------------|
|
| PM---------------------|
| E E E E E E E E E E E E
|-------------------|--------------|
|-------------------|--------------|
|-------------------|--------------|
|-------------------|--------------|
|-------------------|--------------|
|--1p===0-0-0--0--0-|-0--0-0-0-0-0-|


|----3-----| |--3--| |--3--| |--3---| |---3----| |--3--|
E +E E E E E E E E E E E E E E E E E
|-13b15r(13)-11-13p11-10-11p10----|-10------------------------------|
|------------------------------13-|-----13-11-13p11----10-10h11p10--|
|---------------------------------|---------------------------------|
|---------------------------------|---------------------------------|
|---------------------------------|---------------------------------|
|---------------------------------|---------------------------------|
|
| H. Q. Q.
|---------------------------------|---------------------------------|
|---------------------------------|---------------------------------|
|---------------------------------|---------------------------------|
|--5------------------------------|--6--------------6---------------|
|--5------------------------------|--5--------------5---------------|
|--5------------------------------|--6--------------6---------------|


S S E S S E S S E S S E S S E S S E
|----------------------------|----------------------------|
|-10h11p10-10h11----10h11p10-|-10h11p10-10h11----10h11p10-|
|----------------12----------|----------------12----------|
|----------------------------|----------------------------|
|----------------------------|----------------------------|
|----------------------------|----------------------------|
|
| PM-----------------------------------------|
| E E E E E E E E E E E E
|----------------------------|----------------------------|
|----------------------------|----------------------------|
|----------------------------|----------------------------|
|----------------------------|----------------------------|
|----------------------------|----------------------------|
|--1p====0--0-----0--0-----0-|--0-----0--0-----0--0-----0-|


S S E S S E S S E S S E S S E S S E
|----------------------------|----------------------------|
|-10h11p10-10h11----10h11p10-|-10h11p10-10h11----10h11p10-|
|----------------12----------|----------------12----------|
|----------------------------|----------------------------|
|----------------------------|----------------------------|
|----------------------------|----------------------------|
|
| PM-----------------------------------------|
| E E E E E E E E E E E E
|----------------------------|----------------------------|
|----------------------------|----------------------------|
|----------------------------|----------------------------|
|----------------------------|----------------------------|
|----------------------------|----------------------------|
|--1p====0--0-----0--0-----0-|--0-----0--0-----0--0-----0-|


S S E S S E S S E S S E S S E S S E
|----------------------------|------------------------|
|-10h11p10-------------------|------------------------|
|----------12h14p12-10h12p10-|-9h10p9-10h12p10-9h10p9-|
|----------------------------|------------------------|
|----------------------------|------------------------|
|----------------------------|------------------------|
|
| PM--------------------------------------|
| E E E E E E E E E E E E
|----------------------------|------------------------|
|----------------------------|------------------------|
|----------------------------|------------------------|
|----------------------------|------------------------|
|----------------------------|------------------------|
|--1p====0--0-----0--0-----0-|-0----0--0-----0-0----0-|


H. S S S S S S S S S S S S
|-----------|-------------------------------|
|-----------|-------------------------------|
|-----------|------------------------7-9-10-|
|-7tr8------|-7--8-10-7--8-10-7-8-10--------|
|-----------|-------------------------------|
|-----------|-------------------------------|
|
| H. Q. Q.
|-----------|-------------------------------|
|-----------|-------------------------------|
|-----------|-------------------------------|
|-5---------|-6-------6---------------------|
|-5---------|-5-------5---------------------|
|-5---------|-6-------6---------------------|


S S S S S S S S S S S S S S S S S S S S S S S S
|--------------------------------------|--------10-13-------10--13-------10-13-|
|-----10-11-13----10-11-13----10-11-13-|-10--13-------10-13--------10-13-------|
|-12-----------12----------12----------|---------------------------------------|
|--------------------------------------|---------------------------------------|
|--------------------------------------|---------------------------------------|
|--------------------------------------|---------------------------------------|
|
| H. Q. Q.
|--------------------------------------|---------------------------------------|
|--------------------------------------|---------------------------------------|
|--------------------------------------|---------------------------------------|
|--5-----------------------------------|--6------------------6-----------------|
|--5-----------------------------------|--5------------------5-----------------|
|--5-----------------------------------|--6------------------6-----------------|


S S S S S S S S S S S S S S S S S S S S S S S S
|--------10-13-------10-13-------10-13-|--------10-13-------10--13-------10-13----|
|-10--13-------10-13-------10-13-------|-10--13-------10-13--------10-13----------|
|--------------------------------------|------------------------------------------|
|--------------------------------------|------------------------------------------|
|--------------------------------------|------------------------------------------|
|--------------------------------------|------------------------------------------|
|
| H. Q. Q.
|--------------------------------------|------------------------------------------|
|--------------------------------------|------------------------------------------|
|--------------------------------------|------------------------------------------|
|--5-----------------------------------|--6------------------6--------------------|
|--5-----------------------------------|--5------------------5--------------------|
|--5-----------------------------------|--6------------------6--------------------|


Pre-Chorus
Gtrs II, III
PM----| PM----| PM----| PM----|
E E E E E E E E E E E E E E E E E E E E E E E E
||--------------|-------------|-------------|---------------||
||o-------------|-------------|-------------|--------------o||
||--8S7---------|-8S7---------|-------------|---------------||
||--x-----------|-x---------3-|-------------|-----5-5-5-5---||
||o-6S5---------|-6S5-------1-|-4S3---------|-8S7-4-4-4-4--o||
||------0-0-0-0-|-----0-3-5---|-4S3-3-3-3-3-|-8S7-----------||


D.S.S. al Dbl. Coda
PM----| PM----| PM------|
E E E E E E E E E E E E E E E E E E E E E E E E
||--------------|-------------|------------------|----------------||
||o-------------|-------------|------------------|---------------o||
||--------------|-------------|------------------|---------9S10---||
||--------------|-------------|------------------|----------------||
||o-1-0---------|-1-0-------8-|-9S11-------------|-9S8---8-------o||
||--1-0-0-0-0-0-|-1-0-0-3-5-8-|-9S11-11-11-11-11-|-9S8-8----------||


&&
Q. E Q Q Q Q Q E E E E Q E E E E 4x
||-------------|------------|--------------|---------------||
||o------------|------------|--------------|--------------o||
||-------------|------------|--------------|---------------||
||---7----7-7--|--7---7--7--|--------------|---------------||
||o--x----x-x--|--x---x--x--|--------------|--------------o||
||---8----8-8--|--7---8--7--|--0---0-0-0-0-|-3---3-3-3S5---||
|
| TP TP TP TP
| H. H. H. H. 4x
||--10---------|------------|--------------|---------------||
||o------------|-10---------|-11-----------|-8------------o||
||-------------|------------|--------------|---------------||
||-------------|------------|--------------|---------------||
||o------------|------------|--------------|--------------o||
||-------------|------------|--------------|---------------||


Outro
Q Q Q Q Q Q Q Q Q Q Q Q
||------------|------------|------------|------------|
||o-----------|------------|------------|------------|
||------------|------------|------------|------------|
||------------|------------|------------|------------|
||o-----------|------------|------------|------------|
||--0---0--0--|--0---0--0--|--8---8--8--|-8---8--8---|
|
| TP TP TP TP
| H. H. H. H.
||------------|------------|------------|------------|
||o-----------|-10---------|-11---------|-8----------|
||--7---------|------------|------------|------------|
||------------|------------|------------|------------|
||o-----------|------------|------------|------------|
||------------|------------|------------|------------|


Q Q Q Q Q Q Q Q Q Q Q Q 6x
|------------|-----------|------------|------------||
|------------|-----------|------------|-----------o||
|------------|-----------|------------|------------||
|------------|-----------|------------|------------||
|------------|-----------|------------|-4---4--4--o||
|--7---7--7--|-7---7--7--|--5---5--5--|------------||
|
| TP TP TP TP
| H. H. H. H. 6x
|------------|-----------|------------|------------||
|-10---------|-----------|-10---------|-8---------o||
|------------|-9---------|------------|------------||
|------------|-----------|------------|------------||
|------------|-----------|------------|-----------o||
|------------|-----------|------------|------------||


H. +H.
|---------:--------*|
|---------:--------*|
|---------:--------*|
|-0-------:-(0)----*|
|-0-------:-(0)----*|
|-0-------:-(0)----*|
|
| >
| H. H.
|---------:--------*|
|---------:--------*|
|-7-------:--------*|
|---------:--------*|
|---------:--------*|
|---------:--------*|



***************************************************************************************
* Generated using Power Tab Editor by Brad Larsen - http://powertab.guitarnetwork.org *
***************************************************************************************
Song info
Vermilion
Slipknot
2001
  • Rock
  • Heavy Metal
Similar songs
Unsainted - Slipknot
Shake Me - Cinderella
Tainted Love - Marilyn Manson
Shepherd Of Fire - Avenged Sevenfold
Metal Church - Metal Church

Hi! Hope you enjoy backing track experience.
If you want to help us in the development of the project, feel free to donate!