00:00 / 00:00
Tabs and lyrics
Tunning: Standard (E A D G B e)
Author/Artist: Snow Patrol (www.snowpatrol.net)
Title: Run
Standard Tuning

I've simplified this tab quite a bit, and there's a little missing off the end
solo just because I kind of got bored of tabbing it. Hope it's all understandable.

[Verse]
Guitar 1
e|-0---0---0--|
B|-1---1---3--|
G|-2---2---0--|
D|-2---3---0--|
A|-0-------x--|
E|---------3--|

Guitar 2 (also plays Am a couple of times later on in verse)
e|-------------------------------------|
B|-------------------------------------|
G|-9-9-9-9/7-7-7-7-7/4-4-4-4-4/2-2-2-2-|
D|-------------------------------------|
A|-------------------------------------|
E|-------------------------------------|

[Chorus]
e|-0----3----5----1-|
B|-1----3----5----1-|
G|-0----0----5----2-|
D|-2----0----7----3-|
A|-3----2----7----3-|
E|------3----5----1-|

e|------------------------|
B|-8--------6---5------6--|
G|------------------------|
D|------------------------|
A|------------------------|
E|------------------------|

Guitar 2 (chorus 2) played more than indicated
e|-----------------------------------------------------------------------------|
B|-8--8------------------------------------------------------------------------|
G|-------10-9-9-7-7-9-9-10-10-9-9-7-7-5-5--10-9-9-7-7-9-9-10-10-9-9-7-7-5-5-10-|
D|-----------------------------------------------------------------------------|
A|-----------------------------------------------------------------------------|
E|-----------------------------------------------------------------------------|
Soloy outro thing

e|-----------------------------------------------------------------------------|
B|-----------------------------------------------------------------------------|
G|-10-9-9-7-7-5-5-4-4-2-2-0-0-2-2-2-4/5-5/7-7/9-7\5-7/9-9/10-9\7-7\5-10-10-9-9-|
D|-----------------------------------------------------------------------------|
A|-----------------------------------------------------------------------------|
E|-----------------------------------------------------------------------------|

e|---------------------------------------------------------------|
B|---------------------------------------------------------------|
G|-7-7-9-9-10-10-9-9-7-7-5-5-10-10-9-9-7-7-5-5-10-10-9-9-7-7-5-5-|
D|---------------------------------------------------------------|
A|---------------------------------------------------------------|
E|---------------------------------------------------------------|

any questions? andrewbiles@hotmail.com

[Lyrics]

I'll sing it one last time for you
Then we really have to go
You've been the only thing that's right
In all i've done.

And I can barely look at you
But every single time I do
I know we'll make it anywhere
Anywhere from here

Light up, Light up
As if you have a choice
Even if you cannot hear my voice
I'll be right beside you dear

Louder, louder
And we'll run for our lives
I can hardly speak I understand
Why you can't raise your voice to say

To think I might not see those eyes
It makes it so hard not to cry
And as we say our long goodbyes
I nearly do.

Light up, light up
As if you have a choice
Even if you cannot hear my voice
I'll be right beside you dear

Louder, louder
And we'll run for our lives
I can hardly speak I understand
Why you can't raise your voice to say

Slower, slower
We don't have time for that
All I want is to find an easier way
To get out of our little heads

Have heart my dear
We're bound to be afraid
Even if it's just for a few days
Making up for all this mess.

Light up, light up
As if you have a choice
Even if you cannot hear my voice
I'll be right beside you dear.
Tunning: Standard (E A D G B e)
[Intro/Verse]

Use strict downstrokes.

Rythmn:
e|-------------------------------------|
B|-------------------------------------|
G|o-5-5-5-5-5-5-5-5-5-5-5-5-5-5-5-5-5-o|
D|--2-2-2-2-2-3-3-3-0-0-0-0-0-0-0-0-0--| <-- dont mute the open string
A|o-0-0-0-0-0-0-0-0-0-5-5-5-5-5-5-5-5-o|
E|--------------------3-3-3-3-3-3-3-3--|

Lead:
e|--------------------------------|
B|--------------------------------|
G|---9-9-9-7-7-7-7/4-4-4-4/2-2----|
D|--------------------------------|
A|--------------------------------|
E|--------------------------------|


[Chorus]

Rythmn: C G Am
Lead: e|--------------------------------------------------------------------|
B|-------8------8------8------8-----8-----8-------10------10------10--|
G|-----9------9------9------7-----7-----7-------9-------9-------9-----|
D|--10-----10-----10------9-----9-----9------10------10------10-------|
A|--------------------------------------------------------------------|
E|--------------------------------------------------------------------|

Rythmn: F
Lead: e|--------8-------8-------8-------8--|
B|-----10------10------10------10----|
G|--10------10------10------10-------|
D|-----------------------------------|
A|-----------------------------------|
E|-----------------------------------|


[Solo]

(Overdrive)

e|--------------------|----------------------|
B|o-------------------|---------------------o|
G|---10-10-9-9-7-7-9--|--10-10-9-9-7-7-5-5---|
D|--------------------|----------------------|
A|o-------------------|---------------------o|
E|--------------------|----------------------| x2

e|------------------------------------------------------------------------------|
B|------------------------------------------------------------------------------|
G|--10-10-10-9-9-7-7-9-9-5-5-4-4-2-2-0-0-2-2-4-4-5-5-5-7-7-5-5-7-7-9-9-7-7-5-5--|
D|------------------------------------------------------------------------------|
A|------------------------------------------------------------------------------|
E|------------------------------------------------------------------------------|
(thanks to version 2 ^)



*****************************

| / slide up
| \ slide down
| h hammer-on
| p pull-off
| ~ vibrato
| + harmonic
| x Mute note

*****************************
Tunning: Standard (E A D G B e)
This is how they play it

Intro:
Gtr 1
e---------------------------------)---------------------------------)
b---------------------------------)---------------------------------)
g-5---5---5-------5---5---5---5---)-5---5---5---5---5---5---5---5---)
d-2---2---2-------2---3---3---0---)-0---0---0---0---0---0---0---0---)
a-0---0---0---0---0---0---0---0---)-5---5---5---5---5---5---5---5---)
E---------------------------------)-3---3---3---3---3---3---3---3p0-)

---------------------------------)---------------------------------)
---------------------------------)---------------------------------)
-5-------5-------5---5---5---5---)-5---5---5---5---5---5---5---5---)
-2-------2-------2---3---3---0---)-0---0---0---0---0---0---0---0---)
-0---0---0---0---0---0---0---0---)-5---5---5---5---5---5---5---5---)
---------------------------------)-3---3---3---3---3---3---3---0---)

Gtr 2
---------------------------------)---------------------------------)
---------------------------------)---------------------------------)
-----9---9---9---9---7---7---7---)-7-s-4---4---4---4-s-2-----2-----) x2
---------------------------------)---------------------------------)
---------------------------------)---------------------------------)
---------------------------------)---------------------------------)

Verse:

---------------------------------)---------------------------------)
---------------------------------)---------------------------------)
-5---5---5-------5---5---5---5---)-5---5---5---5---5---5---5---5---)
-2---2---2-------2---3---3---0---)-0---0---0---0---0---0---0---0---)
-0---0---0---0---0---0---0---0---)-5---5---5---5---5---5---5---5---)
---------------------------------)-3---3---3---3---3---3---3---0---)

Chorus:

Gtr 1 strums, C G Am F

Gtr 2
C x2 G x2 Am x2 F x2
-----------------) ---------------) -------------------) -------8--------8-)
------8-------8--) -----8------8--) ------10-------10--) ----10-------10---)
----9-------9----) ---7------7----) ----9--------9-----) -10-------10------)
-10------10------) -9------9------) -10-------10-------) ------------------)
-----------------) ---------------) -------------------) ------------------)
-----------------) ---------------) -------------------) ------------------)

Solo:
C G
-----------------------)-----------------------)-----------------------)
-----------------------)-----------------------)-----------------------)
-10s9--9s7--7s9--9s10--)-10s9--9s7--7s5--5s10--)-10s9--9s7--7s9--9s10--)
-----------------------)-----------------------)-----------------------)
-----------------------)-----------------------)-----------------------)
-----------------------)-----------------------)-----------------------)

Am
-----------------------)-----------------------)-----------------------)
-----------------------)-----------------------)-----------------------)
-10s9--9s7--7s5--5s10--)-10s9--9s7--7s5--5s4---)-4s2---2p0--0h2--2s4---)
-----------------------)-----------------------)-----------------------)
-----------------------)-----------------------)-----------------------)
-----------------------)-----------------------)-----------------------)


-----------------------)-----------------------))
-----------------------)-----------------------))
--4s5--5s7--7s5--5s7---)--7s9--9s7--7s5---5----))
-----------------------)-----------------------))
-----------------------)-----------------------))
-----------------------)-----------------------))

Lyrics:

I'll sing it one last time for you
Then we really have to go
You've been the only thing that's right
In all i've done.

And I can barely look at you
But every single time I do
I know we'll make it anywhere
Anywhere from here

Light up, Light up
As if you have a choice
Even if you cannot hear my voice
I'll be right beside you dear

Louder, louder
And we'll run for our lives
I can hardly speak I understand
Why you can't raise your voice to say

To think I might not see those eyes
It makes it so hard not to cry
And as we say our long goodbyes
I nearly do.

Light up, light up
As if you have a choice
Even if you cannot hear my voice
I'll be right beside you dear

Louder, louder
And we'll run for our lives
I can hardly speak I understand
Why you can't raise your voice to say

Slower, slower
We don't have time for that
All I want is to find an easier way
To get out of our little heads

Have heart my dear
We're bound to be afraid
Even if it's just for a few days
Making up for all this mess.

Light up, light up
As if you have a choice
Even if you cannot hear my voice
I'll be right beside you dear.
Tunning: Nashville (E A D G B E)
Snow patrol Run
From the album final straw
Track 7
Tabbed by Liam
Email: guitar_rocker_47@hotmail.com
Tuning Standard

I really noticed I loved this song after seeing the guy out of snow patrol play a live
acoustic version of this sing on the NME awards however this is a tab for the album
version, no one else has tabbed this right but here it is - my version


[Intro]

(rhythm guitar)
E|---------------------------------------|
B|---------------------------------------|
G|-5-5-5-5-5--5-5-5--5-5-5-5-5--5-5-5-5--|
D|-2-2-2-2-2--3-3-3--0-0-0-0-0--0-0-0-0--| x4
A|-0-0-0-0-0--0-0-0--5-5-5-5-5--5-5-5-5--|
E|-------------------3-3-3-3-3--3-3-3-3--|

(Lead guitar)
E|---------------------------------------|
B|-9-9-9-9-\-7-7-7-7bu-------------------|
G|----------------------8-8-8-8-\-6-6-6~-| x2 (come in on the 2nd repeat of
D|---------------------------------------| the above riff)
A|---------------------------------------|
E|---------------------------------------|


[Verse]

(rhythm guitar)
E|---------------------------------------|
B|---------------------------------------|
G|-5-5-5-5-5--5-5-5--5-5-5-5-5--5-5-5-5--|
D|-2-2-2-2-2--3-3-3--0-0-0-0-0--0-0-0-0--| x4
A|-0-0-0-0-0--0-0-0--5-5-5-5-5--5-5-5-5--|
E|-------------------3-3-3-3-3--3-3-3-3--|

(Lead guitar)
E|---------------------------------------|
B|-9-9-9-9-\-7-7-7-7bu-------------------|
G|----------------------8-8-8-8-\-6-6-6~-| x1 (come in on the 4th repeat of
D|---------------------------------------| the above riff)
A|---------------------------------------|
E|---------------------------------------|


[Chorus]

(Rhythm)
E|--------------------------------------------------------------------|
B|-1-1-1-1-1-1-1-1--1-1-1-1-1-1-1-1-----------------------------------|
G|-0-0-0-0-0-0-0-0--0-0-0-0-0-0-0-0--5-5-5-5-5-5-5-5--5-5-5-5-5-5-5-5-|
D|-2-2-2-2-2-2-2-2--2-2-2-2-2-2-2-2--0-0-0-0-0-0-0-0--0-0-0-0-0-0-0-0-|
A|-3-3-3-3-3-3-3-3--3-3-3-3-3-3-3-3--5-5-5-5-5-5-5-5--5-5-5-5-5-5-5-5-|
E|-----------------------------------3-3-3-3-3-3-3-3--3-3-3-3-3-3-3-3-|

Lead
E|--------------------------------------------------------------------|
B|-----1-------1--------1-------1--------3-------3--------3--------3--|
G|---0---0---0---0----0---0---0---0----0---0---0---0----0---0----0---0|
D|-2-------2--------2-------2-----------------------------------------|
A|-----------------------------------2-------2--------2--------2------|
E|--------------------------------------------------------------------|

(Rhythm)
E|--------------------------------------------------------------------|
B|--------------------------------------------------------------------|
G|-5-5-5-5-5-5-5-5--5-5-5-5-5-5-5-5--5-5-5-5-5-5-5-5--5-5-5-5-5-5-5-5-|
D|-2-2-2-2-2-2-2-2--2-2-2-2-2-2-2-2--3-3-3-3-3-3-3-3--3-3-3-3-3-3-3-3-|
A|-0-0-0-0-0-0-0-0--0-0-0-0-0-0-0-0--0-0-0-0-0-0-0-0--0-0-0-0-0-0-0-0-|
E|--------------------------------------------------------------------|

Lead
E|--------------------------------------------------------------------|
B|-----1-------1--------1-------1--------1-------1--------1-------1---|
G|---2---2---2---2----2---2---2---2----2---2---2---2----2---2---2---2-|
D|-2-------2--------2-------2--------3-------3--------3-------3-------|
A|--------------------------------------------------------------------|
E|--------------------------------------------------------------------|


[Post-Chorus]

(rhythm guitar)
E|---------------------------------------|
B|---------------------------------------|
G|-5-5-5-5-5--5-5-5--5-5-5-5-5--5-5-5-5--|
D|-2-2-2-2-2--3-3-3--0-0-0-0-0--0-0-0-0--| x2
A|-0-0-0-0-0--0-0-0--5-5-5-5-5--5-5-5-5--|
E|-------------------3-3-3-3-3--3-3-3-3--|

(Lead guitar)
E|---------------------------------------|
B|-9-9-9-9-\-7-7-7-7bu-------------------|
G|----------------------8-8-8-8-\-6-6-6~-| x2
D|---------------------------------------|
A|---------------------------------------|
E|---------------------------------------|


[Solo]

(rhythm plays chorus x3 in the background)

E|----------------------------------------|----------------------------------------|
B|-6p5--5p3--3h5--5h6--6p5--5p3--3p1--1/6-|-6p5--5p3--3h5--5h6--6p5--5p3--3p1--1/6-|
G|----------------------------------------|----------------------------------------|
D|----------------------------------------|----------------------------------------|
A|----------------------------------------|----------------------------------------|
E|----------------------------------------|----------------------------------------|

E|----------------------------------------|----------------------------------------|
B|-6p5--5p3--3p1--1p0---------------------|-0h1--1h3--3p1--1h3--3h5--5p3--3h5--1~~-|
G|---------------------4p2--2p0--0h2--2h4-|----------------------------------------|
D|----------------------------------------|----------------------------------------|
A|----------------------------------------|----------------------------------------|
E|----------------------------------------|----------------------------------------|


[Outro]

(for the outro just play the rhythm part of the chorus (NO LEAD!) slightly palm
muted then on the last chord play it open and let it RING!!!! (Quietly)



Order


[Intro]

Verse x2
Chorus x2
Post Chorus
Verse x1
Chorus x4
Solo x2


[Outro]

Note: if you insert this tab into Microsoft word and it looks weird where the tab
overlaps it's self just go on file, page set-up then click on the margins tab and
adjust to this: top = 0.32cm, bottom = 0.51cm,Left and right = 3cm. The tab should
now look in proportion, if it doesn't or you don't understand leave a comment



************************************

| h Hammer-on
| p Pull-off
| / Slide up
| \ Slide down
| ~ Vibrato

************************************
Tunning: Standard (E A D G B e)
Right, this is 100% correct for the best song of 2004, from one of its best albums.

Intro & Verses

Rhythm- Strict Downstrokes

e|---------------------------------|
b|---------------------------------|
g|-5-5-5-5-5-5-5-5-5-5-5-5-5-5-5-5-|
d|-2-2-2-2-2s3-3-0-0-0-0-0-0-0-0-0-|
a|-0-0-0-0-0-0-0-0-5-5-5-5-5-5-5-5-|
e|-----------------3-3-3-3-3-3-3-3-|

Lead Verse Riff

e|------------------------------|
b|------------------------------|
g|9-9-9-9s7-7-7-7s4-4-4-4s2-2-2-|
d|------------------------------|
a|------------------------------|
e|------------------------------|

Before first chorus-
e|--------------------------------|
b|--------------------------------|
g|9-9-9-9s7-7-7-7s4-4-4-4-5-4-5-5-|
d|--------------------------------|
a|--------------------------------|
e|--------------------------------|

Chorus

Rhythm

Full six string barre chords (Downstrokes Again)

C G Am F
e|-8------3-----5-----1----|
b|-8------3-----5-----1----|
g|-9------4-----5-----2----|
d|-10-----5-----7-----3----|
a|-10-----5-----7-----3----|
e|-8--x16-3-x16-5-x16-1-x16|

Lead Part over the top.
e|--------------------------------------------------------------------|
b|-----1-------1--------1-------1--------3-------3--------3--------3--|
g|---0---0---0---0----0---0---0---0----0---0---0---0----0---0----0---0|
d|-2-------2--------2-------2-----------------------------------------|
a|-----------------------------------2-------2--------2--------2------|
e|--------------------------------------------------------------------|

e|--------------------------------------------------------------------|
b|-----1-------1--------1-------1--------1-------1--------1-------1---|
g|---2---2---2---2----2---2---2---2----2---2---2---2----2---2---2---2-|
d|-2-------2--------2-------2--------3-------3--------3-------3-------|
a|--------------------------------------------------------------------|
e|--------------------------------------------------------------------|

Solo (Easy)
Play this section twice
e|-------------------------------------|--------------------------------
b|-------------------------------------|--------------------------------
g|-10-10s9-9s7-7s9-9-10-10s9-9s7-7s5-5-|-10-10s9-9s7-7s5-5s4-4s2-2-0-0--
d|-------------------------------------|--------------------------------
a|-------------------------------------|--------------------------------
e|-------------------------------------|--------------------------------

e|-------------------------------------|
b|-------------------------------------|
g|-2-2s4-4s5-5s7-7s5-5s7-7s9-9s7-7s5-5-| Play it all twice.
d|-------------------------------------|
a|-------------------------------------|
e|-------------------------------------|

Thats it

Ive seen so many incomplete or wrong tabs, this is 100% perfect im sure.
Song info
Run
Snow Patrol
2001
  • Rock
  • Soft Rock
Similar songs
A Thousand Miles - Vanessa Carlton
I~m Yours - Jason Mraz
True Love - Pat Benatar
I Dont Mind - Swan Lee

Hi! Hope you enjoy backing track experience.
If you want to help us in the development of the project, feel free to donate!